  0
SECTION
  2
HEADER
  9
$ACADVER
  1
AC1015
  9
$ACADMAINTVER
 70
     6
  9
$DWGCODEPAGE
  3
ANSI_1252
  9
$INSBASE
 10
0.0
 20
0.0
 30
0.0
  9
$EXTMIN
 10
0.0
 20
0.0
 30
0.0
  9
$EXTMAX
 10
2000.0
 20
1000.0
 30
0.0
  9
$LIMMIN
 10
0.0
 20
0.0
  9
$LIMMAX
 10
2000.0
 20
1000.0
  9
$ORTHOMODE
 70
     0
  9
$REGENMODE
 70
     1
  9
$FILLMODE
 70
     1
  9
$QTEXTMODE
 70
     0
  9
$MIRRTEXT
 70
     1
  9
$LTSCALE
 40
1.0
  9
$ATTMODE
 70
     1
  9
$TEXTSIZE
 40
3.5
  9
$TRACEWID
 40
1.0
  9
$TEXTSTYLE
  7
Standard
  9
$CLAYER
  8
0
  9
$CELTYPE
  6
ByLayer
  9
$CECOLOR
 62
   256
  9
$CELTSCALE
 40
1.0
  9
$DISPSILH
 70
     0
  9
$DIMSCALE
 40
1.0
  9
$DIMASZ
 40
6.0
  9
$DIMEXO
 40
1.0
  9
$DIMDLI
 40
3.75
  9
$DIMRND
 40
0.0
  9
$DIMDLE
 40
0.0
  9
$DIMEXE
 40
1.0
  9
$DIMTP
 40
0.0
  9
$DIMTM
 40
0.0
  9
$DIMTXT
 40
3.5
  9
$DIMCEN
 40
2.5
  9
$DIMTSZ
 40
0.0
  9
$DIMTOL
 70
     0
  9
$DIMLIM
 70
     0
  9
$DIMTIH
 70
     1
  9
$DIMTOH
 70
     1
  9
$DIMSE1
 70
     0
  9
$DIMSE2
 70
     0
  9
$DIMTAD
 70
     1
  9
$DIMZIN
 70
     0
  9
$DIMBLK
  1

  9
$DIMASO
 70
     1
  9
$DIMSHO
 70
     1
  9
$DIMPOST
  1

  9
$DIMAPOST
  1

  9
$DIMALT
 70
     0
  9
$DIMALTD
 70
     3
  9
$DIMALTF
 40
0.0393700787401575
  9
$DIMLFAC
 40
1.0
  9
$DIMTOFL
 70
     1
  9
$DIMTVP
 40
0.0
  9
$DIMTIX
 70
     0
  9
$DIMSOXD
 70
     0
  9
$DIMSAH
 70
     0
  9
$DIMBLK1
  1

  9
$DIMBLK2
  1

  9
$DIMSTYLE
  2
ISO-25
  9
$DIMCLRD
 70
     0
  9
$DIMCLRE
 70
     0
  9
$DIMCLRT
 70
     0
  9
$DIMTFAC
 40
1.0
  9
$DIMGAP
 40
1.524
  9
$DIMJUST
 70
     0
  9
$DIMSD1
 70
     0
  9
$DIMSD2
 70
     0
  9
$DIMTOLJ
 70
     0
  9
$DIMTZIN
 70
     0
  9
$DIMALTZ
 70
     0
  9
$DIMALTTZ
 70
     0
  9
$DIMUPT
 70
     0
  9
$DIMDEC
 70
     2
  9
$DIMTDEC
 70
     2
  9
$DIMALTU
 70
     2
  9
$DIMALTTD
 70
     3
  9
$DIMTXSTY
  7
Standard
  9
$DIMAUNIT
 70
     0
  9
$DIMADEC
 70
     2
  9
$DIMALTRND
 40
0.0
  9
$DIMAZIN
 70
     0
  9
$DIMDSEP
 70
    44
  9
$DIMATFIT
 70
     3
  9
$DIMFRAC
 70
     0
  9
$DIMLDRBLK
  1

  9
$DIMLUNIT
 70
     2
  9
$DIMLWD
 70
    -2
  9
$DIMLWE
 70
    -2
  9
$DIMTMOVE
 70
     0
  9
$LUNITS
 70
     2
  9
$LUPREC
 70
     2
  9
$SKETCHINC
 40
1.0
  9
$FILLETRAD
 40
10.0
  9
$AUNITS
 70
     0
  9
$AUPREC
 70
     2
  9
$MENU
  1
.
  9
$ELEVATION
 40
0.0
  9
$PELEVATION
 40
0.0
  9
$THICKNESS
 40
0.0
  9
$LIMCHECK
 70
     0
  9
$CHAMFERA
 40
10.0
  9
$CHAMFERB
 40
10.0
  9
$CHAMFERC
 40
20.0
  9
$CHAMFERD
 40
0.0
  9
$SKPOLY
 70
     0
  9
$TDCREATE
 40
2456338.591762778
  9
$TDUCREATE
 40
2456338.508429444
  9
$TDUPDATE
 40
2457758.35948081
  9
$TDUUPDATE
 40
2457758.276147477
  9
$TDINDWG
 40
0.0001325231
  9
$TDUSRTIMER
 40
2457758.276015139
  9
$USRTIMER
 70
     1
  9
$ANGBASE
 50
0.0
  9
$ANGDIR
 70
     0
  9
$PDMODE
 70
     0
  9
$PDSIZE
 40
-1.0
  9
$PLINEWID
 40
0.0
  9
$SPLFRAME
 70
     0
  9
$SPLINETYPE
 70
     6
  9
$SPLINESEGS
 70
     8
  9
$HANDSEED
  5
1BC
  9
$SURFTAB1
 70
     6
  9
$SURFTAB2
 70
     6
  9
$SURFTYPE
 70
     6
  9
$SURFU
 70
     6
  9
$SURFV
 70
     6
  9
$UCSBASE
  2

  9
$UCSNAME
  2

  9
$UCSORG
 10
0.0
 20
0.0
 30
0.0
  9
$UCSXDIR
 10
1.0
 20
0.0
 30
0.0
  9
$UCSYDIR
 10
0.0
 20
1.0
 30
0.0
  9
$UCSORTHOREF
  2

  9
$UCSORTHOVIEW
 70
     0
  9
$UCSORGTOP
 10
0.0
 20
0.0
 30
0.0
  9
$UCSORGBOTTOM
 10
0.0
 20
0.0
 30
0.0
  9
$UCSORGLEFT
 10
0.0
 20
0.0
 30
0.0
  9
$UCSORGRIGHT
 10
0.0
 20
0.0
 30
0.0
  9
$UCSORGFRONT
 10
0.0
 20
0.0
 30
0.0
  9
$UCSORGBACK
 10
0.0
 20
0.0
 30
0.0
  9
$PUCSBASE
  2

  9
$PUCSNAME
  2

  9
$PUCSORG
 10
0.0
 20
0.0
 30
0.0
  9
$PUCSXDIR
 10
1.0
 20
0.0
 30
0.0
  9
$PUCSYDIR
 10
0.0
 20
1.0
 30
0.0
  9
$PUCSORTHOREF
  2

  9
$PUCSORTHOVIEW
 70
     0
  9
$PUCSORGTOP
 10
0.0
 20
0.0
 30
0.0
  9
$PUCSORGBOTTOM
 10
0.0
 20
0.0
 30
0.0
  9
$PUCSORGLEFT
 10
0.0
 20
0.0
 30
0.0
  9
$PUCSORGRIGHT
 10
0.0
 20
0.0
 30
0.0
  9
$PUCSORGFRONT
 10
0.0
 20
0.0
 30
0.0
  9
$PUCSORGBACK
 10
0.0
 20
0.0
 30
0.0
  9
$USERI1
 70
     0
  9
$USERI2
 70
     0
  9
$USERI3
 70
     0
  9
$USERI4
 70
     0
  9
$USERI5
 70
     0
  9
$USERR1
 40
0.0
  9
$USERR2
 40
0.0
  9
$USERR3
 40
0.0
  9
$USERR4
 40
0.0
  9
$USERR5
 40
0.0
  9
$WORLDVIEW
 70
     1
  9
$SHADEDGE
 70
     3
  9
$SHADEDIF
 70
    70
  9
$TILEMODE
 70
     1
  9
$MAXACTVP
 70
    64
  9
$PINSBASE
 10
0.0
 20
0.0
 30
0.0
  9
$PLIMCHECK
 70
     0
  9
$PEXTMIN
 10
1.000000000000000E+20
 20
1.000000000000000E+20
 30
1.000000000000000E+20
  9
$PEXTMAX
 10
-1.000000000000000E+20
 20
-1.000000000000000E+20
 30
-1.000000000000000E+20
  9
$PLIMMIN
 10
0.0
 20
0.0
  9
$PLIMMAX
 10
0.0
 20
0.0
  9
$UNITMODE
 70
     0
  9
$VISRETAIN
 70
     1
  9
$PLINEGEN
 70
     0
  9
$PSLTSCALE
 70
     1
  9
$TREEDEPTH
 70
  3020
  9
$CMLSTYLE
  2
Standard
  9
$CMLJUST
 70
     0
  9
$CMLSCALE
 40
20.0
  9
$PROXYGRAPHICS
 70
     1
  9
$MEASUREMENT
 70
     1
  9
$CELWEIGHT
370
    -1
  9
$ENDCAPS
280
     0
  9
$JOINSTYLE
280
     0
  9
$LWDISPLAY
290
     1
  9
$INSUNITS
 70
     4
  9
$HYPERLINKBASE
  1

  9
$STYLESHEET
  1

  9
$XEDIT
290
     1
  9
$CEPSNTYPE
380
     0
  9
$PSTYLEMODE
290
     1
  9
$FINGERPRINTGUID
  2
{FEA7B162-7F78-4547-A8DB-B08D5C321801}
  9
$VERSIONGUID
  2
{FAEB1C32-E019-11D5-929B-00C0DF256EC4}
  9
$EXTNAMES
290
     1
  9
$PSVPSCALE
 40
0.0
  9
$OLESTARTUP
290
     0
  0
ENDSEC
  0
SECTION
  2
CLASSES
  0
CLASS
  1
ACDBDICTIONARYWDFLT
  2
AcDbDictionaryWithDefault
  3
ObjectDBX Classes
 90
        0
280
     0
281
     0
  0
CLASS
  1
VISUALSTYLE
  2
AcDbVisualStyle
  3
ObjectDBX Classes
 90
     4095
280
     0
281
     0
  0
CLASS
  1
MATERIAL
  2
AcDbMaterial
  3
ObjectDBX Classes
 90
     1153
280
     0
281
     0
  0
CLASS
  1
ACDBPLACEHOLDER
  2
AcDbPlaceHolder
  3
ObjectDBX Classes
 90
        0
280
     0
281
     0
  0
CLASS
  1
LAYOUT
  2
AcDbLayout
  3
ObjectDBX Classes
 90
        0
280
     0
281
     0
  0
CLASS
  1
SCALE
  2
AcDbScale
  3
ObjectDBX Classes
 90
     1153
280
     0
281
     0
  0
CLASS
  1
TABLESTYLE
  2
AcDbTableStyle
  3
ObjectDBX Classes
 90
     4095
280
     0
281
     0
  0
CLASS
  1
SUN
  2
AcDbSun
  3
SCENEOE
 90
     1153
280
     0
281
     0
  0
CLASS
  1
RASTERVARIABLES
  2
AcDbRasterVariables
  3
ISM
 90
        0
280
     0
281
     0
  0
ENDSEC
  0
SECTION
  2
TABLES
  0
TABLE
  2
VPORT
  5
8
330
0
100
AcDbSymbolTable
 70
     1
  0
VPORT
  5
29
330
8
100
AcDbSymbolTableRecord
100
AcDbViewportTableRecord
  2
*Active
 70
     0
 10
0.0
 20
0.0
 11
1.0
 21
1.0
 12
1000.0
 22
500.0
 13
0.0
 23
0.0
 14
10.0
 24
10.0
 15
10.0
 25
10.0
 16
0.0
 26
0.0
 36
1.0
 17
0.0
 27
0.0
 37
0.0
 40
1000.0
 41
2.0
 42
50.0
 43
0.0
 44
0.0
 50
0.0
 51
0.0
 71
     0
 72
  2000
 73
     1
 74
     3
 75
     0
 76
     0
 77
     0
 78
     0
281
     0
 65
     1
110
0.0
120
0.0
130
0.0
111
1.0
121
0.0
131
0.0
112
0.0
122
1.0
132
0.0
 79
     0
146
0.0
  0
ENDTAB
  0
TABLE
  2
LTYPE
  5
5
330
0
100
AcDbSymbolTable
 70
     6
  0
LTYPE
  5
14
330
5
100
AcDbSymbolTableRecord
100
AcDbLinetypeTableRecord
  2
ByBlock
 70
     0
  3

 72
    65
 73
     0
 40
0.0
  0
LTYPE
  5
15
330
5
100
AcDbSymbolTableRecord
100
AcDbLinetypeTableRecord
  2
ByLayer
 70
     0
  3

 72
    65
 73
     0
 40
0.0
  0
LTYPE
  5
16
330
5
100
AcDbSymbolTableRecord
100
AcDbLinetypeTableRecord
  2
Continuous
 70
     0
  3
Solid line
 72
    65
 73
     0
 40
0.0
  0
LTYPE
  5
3F
330
5
100
AcDbSymbolTableRecord
100
AcDbLinetypeTableRecord
  2
HIDDEN
 70
     0
  3
Hidden __ __ __ __ __ __ __ __ __ __ __ __ __ __
 72
    65
 73
     2
 40
1.905
 49
1.27
 74
     0
 49
-0.635
 74
     0
  0
LTYPE
  5
40
330
5
100
AcDbSymbolTableRecord
100
AcDbLinetypeTableRecord
  2
PHANTOM
 70
     0
  3
Phantom ______  __  __  ______  __  __  ______
 72
    65
 73
     6
 40
12.7
 49
6.35
 74
     0
 49
-1.27
 74
     0
 49
1.27
 74
     0
 49
-1.27
 74
     0
 49
1.27
 74
     0
 49
-1.27
 74
     0
  0
LTYPE
  5
41
330
5
100
AcDbSymbolTableRecord
100
AcDbLinetypeTableRecord
  2
CENTER
 70
     0
  3
Center ____ _ ____ _ ____ _ ____ _ ____ _ ____
 72
    65
 73
     4
 40
10.16
 49
6.35
 74
     0
 49
-1.27
 74
     0
 49
1.27
 74
     0
 49
-1.27
 74
     0
  0
LTYPE
  5
42
330
5
100
AcDbSymbolTableRecord
100
AcDbLinetypeTableRecord
  2
CENTERX2
 70
     0
  3
Center (2x) ________  __  ________  __  _____
 72
    65
 73
     4
 40
20.32
 49
12.7
 74
     0
 49
-2.54
 74
     0
 49
2.54
 74
     0
 49
-2.54
 74
     0
  0
LTYPE
  5
43
330
5
100
AcDbSymbolTableRecord
100
AcDbLinetypeTableRecord
  2
DOT2
 70
     0
  3
Dot (.5x) ........................................
 72
    65
 73
     2
 40
0.635
 49
0.0
 74
     0
 49
-0.635
 74
     0
  0
ENDTAB
  0
TABLE
  2
LAYER
  5
2
330
0
100
AcDbSymbolTable
 70
     2
  0
LAYER
  5
10
330
2
100
AcDbSymbolTableRecord
100
AcDbLayerTableRecord
  2
0
 70
     0
 62
     7
  6
Continuous
370
    -3
390
F
  0
LAYER
  5
44
330
2
100
AcDbSymbolTableRecord
100
AcDbLayerTableRecord
  2
TABLE_BL1
 70
     0
 62
   179
  6
Continuous
370
    -3
390
F
  0
ENDTAB
  0
TABLE
  2
STYLE
  5
3
330
0
100
AcDbSymbolTable
 70
     1
  0
STYLE
  5
11
330
3
100
AcDbSymbolTableRecord
100
AcDbTextStyleTableRecord
  2
Standard
 70
     0
 40
0.0
 41
1.0
 50
0.0
 71
     0
 42
3.5
  3
txt
  4

  0
ENDTAB
  0
TABLE
  2
VIEW
  5
6
330
0
100
AcDbSymbolTable
 70
     0
  0
ENDTAB
  0
TABLE
  2
UCS
  5
7
330
0
100
AcDbSymbolTable
 70
     0
  0
ENDTAB
  0
TABLE
  2
APPID
  5
9
330
0
100
AcDbSymbolTable
 70
     1
  0
APPID
  5
12
330
9
100
AcDbSymbolTableRecord
100
AcDbRegAppTableRecord
  2
ACAD
 70
     0
  0
ENDTAB
  0
TABLE
  2
DIMSTYLE
  5
A
330
0
100
AcDbSymbolTable
 70
     1
100
AcDbDimStyleTable
  0
DIMSTYLE
105
27
330
A
100
AcDbSymbolTableRecord
100
AcDbDimStyleTableRecord
  2
ISO-25
 70
     0
 41
2.5
 42
0.625
 43
3.75
 44
1.25
 73
     0
 74
     0
 77
     1
 78
     8
140
2.5
141
2.5
143
0.03937007874016
147
0.625
171
     3
172
     1
178
     0
271
     2
272
     2
274
     3
278
    44
283
     0
284
     8
340
11
  0
ENDTAB
  0
TABLE
  2
BLOCK_RECORD
  5
1
330
0
100
AcDbSymbolTable
 70
     1
  0
BLOCK_RECORD
  5
1F
330
1
100
AcDbSymbolTableRecord
100
AcDbBlockTableRecord
  2
*Model_Space
340
22
  0
BLOCK_RECORD
  5
1B
330
1
100
AcDbSymbolTableRecord
100
AcDbBlockTableRecord
  2
*Paper_Space
340
1E
  0
BLOCK_RECORD
  5
23
330
1
100
AcDbSymbolTableRecord
100
AcDbBlockTableRecord
  2
*Paper_Space0
340
26
  0
ENDTAB
  0
ENDSEC
  0
SECTION
  2
BLOCKS
  0
BLOCK
  5
20
330
1F
100
AcDbEntity
  8
0
100
AcDbBlockBegin
  2
*Model_Space
 70
     0
 10
0.0
 20
0.0
 30
0.0
  3
*Model_Space
  1
*Model_Space
  0
ENDBLK
  5
21
330
1F
100
AcDbEntity
  8
0
100
AcDbBlockEnd
  0
BLOCK
  5
1C
330
1B
100
AcDbEntity
 67
     1
  8
0
100
AcDbBlockBegin
  2
*Paper_Space
 70
     0
 10
0.0
 20
0.0
 30
0.0
  3
*Paper_Space
  1
*Paper_Space
  0
ENDBLK
  5
1D
330
1B
100
AcDbEntity
 67
     1
  8
0
100
AcDbBlockEnd
  0
BLOCK
  5
24
330
23
100
AcDbEntity
  8
0
100
AcDbBlockBegin
  2
*Paper_Space0
 70
     0
 10
0.0
 20
0.0
 30
0.0
  3
*Paper_Space0
  1
*Paper_Space0
  0
ENDBLK
  5
25
330
23
100
AcDbEntity
  8
0
100
AcDbBlockEnd
  0
ENDSEC
  0
SECTION
  2
ENTITIES
  0
LINE
  5
45
330
1F
100
AcDbEntity
  8
0
  6
Continuous
 62
     7
370
    15
100
AcDbLine
 10
1409.67638308246
 20
331.2913772392311
 30
0.0
 11
1409.676383082459
 21
331.7737725030863
 31
0.0
  0
LINE
  5
46
330
1F
100
AcDbEntity
  8
0
  6
Continuous
 62
     7
370
    15
100
AcDbLine
 10
1408.975554507203
 20
332.2193316845185
 30
0.0
 11
1409.676383082459
 21
331.7737725030863
 31
0.0
  0
LINE
  5
47
330
1F
100
AcDbEntity
  8
0
  6
Continuous
 62
     7
370
    15
100
AcDbLine
 10
1409.67638308246
 20
331.2913772392311
 30
0.0
 11
1408.975554507203
 21
331.2913772392328
 31
0.0
  0
ELLIPSE
  5
48
330
1F
100
AcDbEntity
  8
0
  6
Continuous
 62
     7
370
    15
100
AcDbEllipse
 10
1402.3525521152
 20
336.4299755260785
 30
0.0
 11
7.837202391757045
 21
-7.313111706625989
 31
0.0
210
0.0
220
0.0
230
1.0
 40
0.2453475563235135
 41
0.6503308592555723
 42
0.8278472171843426
  0
LINE
  5
49
330
1F
100
AcDbEntity
  8
0
  6
Continuous
 62
     7
370
    15
100
AcDbLine
 10
1409.676383082458
 20
354.8089819753758
 30
0.0
 11
1409.676383082459
 21
355.291377239231
 31
0.0
  0
LINE
  5
4A
330
1F
100
AcDbEntity
  8
0
  6
Continuous
 62
     7
370
    15
100
AcDbLine
 10
1408.975554507203
 20
354.3634227939473
 30
0.0
 11
1409.676383082458
 21
354.8089819753758
 31
0.0
  0
LINE
  5
4B
330
1F
100
AcDbEntity
  8
0
  6
Continuous
 62
     7
370
    15
100
AcDbLine
 10
1409.676383082459
 20
355.291377239231
 30
0.0
 11
1408.975554507203
 21
355.2913772392328
 31
0.0
  0
ELLIPSE
  5
4C
330
1F
100
AcDbEntity
  8
0
  6
Continuous
 62
     7
370
    15
100
AcDbEllipse
 10
1402.352552115199
 20
350.1527789523831
 30
0.0
 11
7.837202391755
 21
7.313111706627923
 31
0.0
210
0.0
220
0.0
230
1.0
 40
0.2453475563235193
 41
5.455338089995634
 42
5.632854447923885
  0
LINE
  5
4D
330
1F
100
AcDbEntity
  8
0
  6
Continuous
 62
     7
370
    15
100
AcDbLine
 10
1409.67638308246
 20
509.2913772392311
 30
0.0
 11
1409.676383082459
 21
509.7737725030863
 31
0.0
  0
LINE
  5
4E
330
1F
100
AcDbEntity
  8
0
  6
Continuous
 62
     7
370
    15
100
AcDbLine
 10
1408.975554507203
 20
510.2193316845185
 30
0.0
 11
1409.676383082459
 21
509.7737725030863
 31
0.0
  0
LINE
  5
4F
330
1F
100
AcDbEntity
  8
0
  6
Continuous
 62
     7
370
    15
100
AcDbLine
 10
1409.67638308246
 20
509.2913772392311
 30
0.0
 11
1408.975554507203
 21
509.2913772392328
 31
0.0
  0
ELLIPSE
  5
50
330
1F
100
AcDbEntity
  8
0
  6
Continuous
 62
     7
370
    15
100
AcDbEllipse
 10
1402.3525521152
 20
514.4299755260785
 30
0.0
 11
7.837202391757047
 21
-7.313111706625932
 31
0.0
210
0.0
220
0.0
230
1.0
 40
0.2453475563235182
 41
0.6503308592555525
 42
0.8278472171843383
  0
LINE
  5
51
330
1F
100
AcDbEntity
  8
0
  6
Continuous
 62
     7
370
    15
100
AcDbLine
 10
1409.676383082458
 20
532.8089819753759
 30
0.0
 11
1409.676383082459
 21
533.291377239231
 31
0.0
  0
LINE
  5
52
330
1F
100
AcDbEntity
  8
0
  6
Continuous
 62
     7
370
    15
100
AcDbLine
 10
1408.975554507203
 20
532.3634227939473
 30
0.0
 11
1409.676383082458
 21
532.8089819753759
 31
0.0
  0
LINE
  5
53
330
1F
100
AcDbEntity
  8
0
  6
Continuous
 62
     7
370
    15
100
AcDbLine
 10
1409.676383082459
 20
533.291377239231
 30
0.0
 11
1408.975554507203
 21
533.2913772392328
 31
0.0
  0
ELLIPSE
  5
54
330
1F
100
AcDbEntity
  8
0
  6
Continuous
 62
     7
370
    15
100
AcDbEllipse
 10
1402.352552115199
 20
528.1527789523831
 30
0.0
 11
7.837202391755229
 21
7.31311170662798
 31
0.0
210
0.0
220
0.0
230
1.0
 40
0.2453475563235369
 41
5.455338089995677
 42
5.63285444792391
  0
LINE
  5
55
330
1F
100
AcDbEntity
  8
0
  6
Continuous
 62
     7
370
    15
100
AcDbLine
 10
1409.67638308246
 20
697.2913772392307
 30
0.0
 11
1409.676383082459
 21
697.7737725030858
 31
0.0
  0
LINE
  5
56
330
1F
100
AcDbEntity
  8
0
  6
Continuous
 62
     7
370
    15
100
AcDbLine
 10
1408.975554507203
 20
698.219331684518
 30
0.0
 11
1409.676383082459
 21
697.7737725030858
 31
0.0
  0
LINE
  5
57
330
1F
100
AcDbEntity
  8
0
  6
Continuous
 62
     7
370
    15
100
AcDbLine
 10
1409.67638308246
 20
697.2913772392307
 30
0.0
 11
1408.975554507203
 21
697.2913772392321
 31
0.0
  0
ELLIPSE
  5
58
330
1F
100
AcDbEntity
  8
0
  6
Continuous
 62
     7
370
    15
100
AcDbEllipse
 10
1402.3525521152
 20
702.4299755260779
 30
0.0
 11
7.837202391757047
 21
-7.313111706625932
 31
0.0
210
0.0
220
0.0
230
1.0
 40
0.2453475563235182
 41
0.6503308592555821
 42
0.827847217184365
  0
LINE
  5
59
330
1F
100
AcDbEntity
  8
0
  6
Continuous
 62
     7
370
    15
100
AcDbLine
 10
1409.676383082458
 20
720.8089819753753
 30
0.0
 11
1409.676383082459
 21
721.2913772392304
 31
0.0
  0
LINE
  5
5A
330
1F
100
AcDbEntity
  8
0
  6
Continuous
 62
     7
370
    15
100
AcDbLine
 10
1408.975554507203
 20
720.3634227939468
 30
0.0
 11
1409.676383082458
 21
720.8089819753753
 31
0.0
  0
LINE
  5
5B
330
1F
100
AcDbEntity
  8
0
  6
Continuous
 62
     7
370
    15
100
AcDbLine
 10
1409.676383082459
 20
721.2913772392304
 30
0.0
 11
1408.975554507203
 21
721.2913772392324
 31
0.0
  0
ELLIPSE
  5
5C
330
1F
100
AcDbEntity
  8
0
  6
Continuous
 62
     7
370
    15
100
AcDbEllipse
 10
1402.352552115199
 20
716.1527789523825
 30
0.0
 11
7.837202391755229
 21
7.313111706628094
 31
0.0
210
0.0
220
0.0
230
1.0
 40
0.2453475563235274
 41
5.455338089995615
 42
5.632854447923869
  0
ARC
  5
5D
330
1F
100
AcDbEntity
  8
0
  6
Continuous
 62
     7
370
    15
100
AcDbCircle
 10
1344.475554507203
 20
638.0913772391533
 30
0.0
 40
25.0
100
AcDbArc
 50
0.0000000000002606
 51
90.0
  0
LINE
  5
5E
330
1F
100
AcDbEntity
  8
0
  6
Continuous
 62
     7
370
    15
100
AcDbLine
 10
894.4755545072031
 20
323.0913772391533
 30
0.0
 11
1344.475554507203
 21
323.0913772391534
 31
0.0
  0
LINE
  5
5F
330
1F
100
AcDbEntity
  8
0
  6
Continuous
 62
     7
370
    15
100
AcDbLine
 10
1369.475554507203
 20
348.0913772391534
 30
0.0
 11
1369.475554507203
 21
638.0913772391534
 31
0.0
  0
ARC
  5
60
330
1F
100
AcDbEntity
  8
0
  6
Continuous
 62
     7
370
    15
100
AcDbCircle
 10
894.4755545072031
 20
348.0913772391533
 30
0.0
 40
25.0
100
AcDbArc
 50
180.0
 51
270.0000000000008
  0
ARC
  5
61
330
1F
100
AcDbEntity
  8
0
  6
Continuous
 62
     7
370
    15
100
AcDbCircle
 10
1344.475554507203
 20
348.0913772391533
 30
0.0
 40
25.0
100
AcDbArc
 50
270.0000000000008
 51
0.0000000000001303
  0
ARC
  5
62
330
1F
100
AcDbEntity
  8
0
  6
Continuous
 62
     7
370
    15
100
AcDbCircle
 10
894.4755545072031
 20
638.0913772391533
 30
0.0
 40
24.99999999999989
100
AcDbArc
 50
90.0
 51
180.0
  0
LINE
  5
63
330
1F
100
AcDbEntity
  8
0
  6
Continuous
 62
     7
370
    15
100
AcDbLine
 10
869.4755545072032
 20
638.0913772391533
 30
0.0
 11
869.4755545072031
 21
348.0913772391533
 31
0.0
  0
LINE
  5
64
330
1F
100
AcDbEntity
  8
0
  6
Continuous
 62
     7
370
    15
100
AcDbLine
 10
1344.475554507203
 20
663.0913772391533
 30
0.0
 11
894.4755545072031
 21
663.0913772391532
 31
0.0
  0
LINE
  5
65
330
1F
100
AcDbEntity
  8
0
  6
Continuous
 62
     7
370
    15
100
AcDbLine
 10
869.4755545072031
 20
348.0913772391533
 30
0.0
 11
877.8003355417868
 21
348.0913772391533
 31
0.0
  0
LINE
  5
66
330
1F
100
AcDbEntity
  8
0
  6
Continuous
 62
     7
370
    15
100
AcDbLine
 10
869.4755545072032
 20
638.0913772391533
 30
0.0
 11
878.56122547338
 21
638.0913772391533
 31
0.0
  0
LINE
  5
67
330
1F
100
AcDbEntity
  8
0
  6
Continuous
 62
     7
370
    15
100
AcDbLine
 10
878.700500898724
 20
638.0682526755768
 30
0.0
 11
878.5612254733799
 21
638.0913772391533
 31
0.0
  0
SPLINE
  5
68
330
1F
100
AcDbEntity
  8
0
  6
Continuous
 62
     7
370
    15
100
AcDbSpline
210
0.0
220
0.0
230
1.0
 70
     8
 71
     3
 72
    15
 73
    11
 74
     0
 42
0.000000001
 43
0.00000001
 40
0.0
 40
0.0
 40
0.0
 40
0.0
 40
0.1248073648449742
 40
0.2496555548361312
 40
0.3745035059020393
 40
0.4994985735221285
 40
0.6244934184691028
 40
0.749644692634621
 40
0.8747960236022693
 40
1.0
 40
1.0
 40
1.0
 40
1.0
 10
877.8176424669608
 20
348.0917864115058
 30
0.0
 10
877.9319679874295
 20
360.1373550027249
 30
0.0
 10
878.1606564248467
 20
384.2324323540722
 30
0.0
 10
878.4362074689681
 20
420.4076381172289
 30
0.0
 10
878.6557601465444
 20
456.6186172247795
 30
0.0
 10
878.8090824061824
 20
492.8594449821827
 30
0.0
 10
878.8938879500206
 20
529.139540800916
 30
0.0
 10
878.9043144359691
 20
565.4386811307276
 30
0.0
 10
878.8469894118695
 20
601.7568757171916
 30
0.0
 10
878.7493372475581
 20
625.96276366159
 30
0.0
 10
878.7005008981141
 20
638.0682526754637
 30
0.0
  0
LINE
  5
69
330
1F
100
AcDbEntity
  8
0
  6
Continuous
 62
     7
370
    15
100
AcDbLine
 10
877.8003355417868
 20
348.0913772391533
 30
0.0
 11
877.817642466961
 21
348.0913772391533
 31
0.0
  0
LINE
  5
6A
330
1F
100
AcDbEntity
  8
0
  6
Continuous
 62
     7
370
    15
100
AcDbLine
 10
1369.475554507203
 20
638.0913772391533
 30
0.0
 11
1360.389883541026
 21
638.0913772391533
 31
0.0
  0
SPLINE
  5
6B
330
1F
100
AcDbEntity
  8
0
  6
Continuous
 62
     7
370
    15
100
AcDbSpline
210
0.0
220
0.0
230
1.0
 70
     8
 71
     3
 72
    15
 73
    11
 74
     0
 42
0.000000001
 43
0.00000001
 40
0.0
 40
0.0
 40
0.0
 40
0.0
 40
0.1277050631469756
 40
0.2500052846528075
 40
0.3758494975980122
 40
0.5000006215684636
 40
0.6241484129071292
 40
0.7499931831291219
 40
0.8722930816936403
 40
1.0
 40
1.0
 40
1.0
 40
1.0
 10
1344.475554507203
 20
654.0057062729765
 30
0.0
 10
1345.525765043958
 20
653.9232905526871
 30
0.0
 10
1347.581738219311
 20
653.7619471798946
 30
0.0
 10
1350.55700762523
 20
652.7778358493539
 30
0.0
 10
1353.284063150285
 20
651.301315460185
 30
0.0
 10
1355.693084149688
 20
649.3089238118594
 30
0.0
 10
1357.68547938357
 20
646.8999015277869
 30
0.0
 10
1359.161995292764
 20
644.1728724976399
 30
0.0
 10
1360.146119706696
 20
641.197588804166
 30
0.0
 10
1360.307465759575
 20
639.1416030308874
 30
0.0
 10
1360.389883541026
 20
638.0913772391533
 30
0.0
  0
LINE
  5
6C
330
1F
100
AcDbEntity
  8
0
  6
Continuous
 62
     7
370
    15
100
AcDbLine
 10
1344.475554507203
 20
663.0913772391532
 30
0.0
 11
1344.475554507203
 21
654.0057062729763
 31
0.0
  0
LINE
  5
6D
330
1F
100
AcDbEntity
  8
0
  6
Continuous
 62
     7
370
    15
100
AcDbLine
 10
1344.475554507203
 20
323.0913772391534
 30
0.0
 11
1344.475554507203
 21
331.4161582737388
 31
0.0
  0
SPLINE
  5
6E
330
1F
100
AcDbEntity
  8
0
  6
Continuous
 62
     7
370
    15
100
AcDbSpline
210
0.0
220
0.0
230
1.0
 70
     8
 71
     3
 72
    15
 73
    11
 74
     0
 42
0.000000001
 43
0.00000001
 40
0.0
 40
0.0
 40
0.0
 40
0.0
 40
0.1277067818565643
 40
0.2500045648689302
 40
0.3758463447789225
 40
0.5000006532279123
 40
0.6241516109428689
 40
0.7499937477421916
 40
0.8722917587037718
 40
1.0
 40
1.0
 40
1.0
 40
1.0
 10
1361.15077347262
 20
348.0913772391534
 30
0.0
 10
1361.066205641185
 20
346.9897317631581
 30
0.0
 10
1360.900651834314
 20
344.8331008163744
 30
0.0
 10
1359.872066901756
 20
341.7127475360223
 30
0.0
 10
1358.326218082129
 20
338.8534353660059
 30
0.0
 10
1356.238639229886
 20
336.3283092987606
 30
0.0
 10
1353.713512986458
 20
334.240728022961
 30
0.0
 10
1350.854226294428
 20
332.6948822475969
 30
0.0
 10
1347.733857956299
 20
331.6662842412775
 30
0.0
 10
1345.577212532497
 20
331.5007278308026
 30
0.0
 10
1344.475554507203
 20
331.4161582737369
 30
0.0
  0
LINE
  5
6F
330
1F
100
AcDbEntity
  8
0
  6
Continuous
 62
     7
370
    15
100
AcDbLine
 10
1369.475554507203
 20
348.0913772391533
 30
0.0
 11
1361.15077347262
 21
348.0913772391533
 31
0.0
  0
SPLINE
  5
70
330
1F
100
AcDbEntity
  8
0
  6
Continuous
 62
     7
370
    15
100
AcDbSpline
210
0.0
220
0.0
230
1.0
 70
     8
 71
     3
 72
    15
 73
    11
 74
     0
 42
0.000000001
 43
0.00000001
 40
0.0
 40
0.0
 40
0.0
 40
0.0
 40
0.1277063548676993
 40
0.2500045650795152
 40
0.37584634519181
 40
0.5000006534385009
 40
0.6241516114679484
 40
0.7499937479527545
 40
0.8722913321338951
 40
1.0
 40
1.0
 40
1.0
 40
1.0
 10
894.4755545072031
 20
331.4161582737368
 30
0.0
 10
893.373912762522
 20
331.5007256636383
 30
0.0
 10
891.2172819077946
 20
331.6662791598142
 30
0.0
 10
888.0969280459877
 20
332.6948630426181
 30
0.0
 10
885.2376126420422
 20
334.2407136722655
 30
0.0
 10
882.7124865629478
 20
336.3282925201856
 30
0.0
 10
880.6249052824336
 20
338.8534187527814
 30
0.0
 10
879.0790613155748
 20
341.712702214134
 30
0.0
 10
878.0504622607812
 20
344.8330699703887
 30
0.0
 10
877.8849055399427
 20
346.9897154861895
 30
0.0
 10
877.8003355417868
 20
348.0913772391534
 30
0.0
  0
LINE
  5
71
330
1F
100
AcDbEntity
  8
0
  6
Continuous
 62
     7
370
    15
100
AcDbLine
 10
894.4755545072031
 20
323.0913772391532
 30
0.0
 11
894.4755545072031
 21
331.4161582737368
 31
0.0
  0
SPLINE
  5
72
330
1F
100
AcDbEntity
  8
0
  6
Continuous
 62
     7
370
    15
100
AcDbSpline
210
0.0
220
0.0
230
1.0
 70
     8
 71
     3
 72
    17
 73
    13
 74
     0
 42
0.000000001
 43
0.00000001
 40
0.0
 40
0.0
 40
0.0
 40
0.0
 40
0.1085136308778241
 40
0.217032905497872
 40
0.3255447414885865
 40
0.4343233022142365
 40
0.543110417096574
 40
0.6518887751952512
 40
0.7388885502812218
 40
0.8258885983332589
 40
0.9129442178536803
 40
0.9999999999999999
 40
0.9999999999999999
 40
0.9999999999999999
 40
0.9999999999999999
 10
1344.475554507203
 20
331.4161582737369
 30
0.0
 10
1328.223055594347
 20
331.5838933585446
 30
0.0
 10
1295.717212483913
 20
331.9193722519818
 30
0.0
 10
1246.900531166164
 20
332.3024999893728
 30
0.0
 10
1198.01268193404
 20
332.5813854899255
 30
0.0
 10
1149.059232697386
 20
332.7296857883618
 30
0.0
 10
1100.056523442796
 20
332.7441876156574
 30
0.0
 10
1054.329727503332
 20
332.6313074852654
 30
0.0
 10
1011.891146771853
 20
332.4233321793508
 30
0.0
 10
972.7330479637831
 20
332.1556846602554
 30
0.0
 10
933.5891420636839
 20
331.823615051022
 30
0.0
 10
907.5134251445618
 20
331.5519772840716
 30
0.0
 10
894.4755545072031
 20
331.416158273737
 30
0.0
  0
LINE
  5
73
330
1F
100
AcDbEntity
  8
0
  6
Continuous
 62
     7
370
    15
100
AcDbLine
 10
894.4755545072031
 20
663.0913772391532
 30
0.0
 11
894.4755545072031
 21
654.0057062729765
 31
0.0
  0
SPLINE
  5
74
330
1F
100
AcDbEntity
  8
0
  6
Continuous
 62
     7
370
    15
100
AcDbSpline
210
0.0
220
0.0
230
1.0
 70
     8
 71
     3
 72
    15
 73
    11
 74
     0
 42
0.000000001
 43
0.00000001
 40
0.0
 40
0.0
 40
0.0
 40
0.0
 40
0.1277050628998631
 40
0.2500052846527339
 40
0.375849497242126
 40
0.5000006215683033
 40
0.6241484130710113
 40
0.7499931831290736
 40
0.8722930822815915
 40
1.0
 40
1.0
 40
1.0
 40
1.0
 10
878.56122547338
 20
638.0913772391533
 30
0.0
 10
878.6436411933989
 20
639.141587773876
 30
0.0
 10
878.8049845659733
 20
641.1975609492275
 30
0.0
 10
879.7890958951069
 20
644.1728303525666
 30
0.0
 10
881.2656162844681
 20
646.8998858796864
 30
0.0
 10
883.2580079330511
 20
649.3089068808366
 30
0.0
 10
885.6670302198462
 20
651.3013021162142
 30
0.0
 10
888.394059254277
 20
652.7778180274975
 30
0.0
 10
891.3693429470791
 20
653.7619424397543
 30
0.0
 10
893.4253287203223
 20
653.9232884921514
 30
0.0
 10
894.4755545072031
 20
654.0057062729765
 30
0.0
  0
LINE
  5
75
330
1F
100
AcDbEntity
  8
0
  6
Continuous
 62
     7
370
    15
100
AcDbLine
 10
1361.15077347262
 20
348.0913772391533
 30
0.0
 11
1361.133466547165
 21
348.0913772391533
 31
0.0
  0
SPLINE
  5
76
330
1F
100
AcDbEntity
  8
0
  6
Continuous
 62
     7
370
    15
100
AcDbSpline
210
0.0
220
0.0
230
1.0
 70
     8
 71
     3
 72
    13
 73
     9
 74
     0
 42
0.000000001
 43
0.00000001
 40
0.0
 40
0.0
 40
0.0
 40
0.0
 40
0.1923892097195249
 40
0.3848541407920896
 40
0.577545464383906
 40
0.7703087093052343
 40
0.8851481700188345
 40
1.0
 40
1.0
 40
1.0
 40
1.0
 10
1360.250608117021
 20
638.0682528351945
 30
0.0
 10
1360.180929152595
 20
619.4657306870413
 30
0.0
 10
1360.041543799202
 20
582.2533647319524
 30
0.0
 10
1360.046712170309
 20
526.3885101981781
 30
0.0
 10
1360.212460193653
 20
470.5007148172419
 30
0.0
 10
1360.49807187821
 20
422.1473204633654
 30
0.0
 10
1360.816848621168
 20
381.3439851713666
 30
0.0
 10
1361.027923449586
 20
359.1762506071469
 30
0.0
 10
1361.133466547165
 20
348.0917864398888
 30
0.0
  0
LINE
  5
77
330
1F
100
AcDbEntity
  8
0
  6
Continuous
 62
     7
370
    15
100
AcDbLine
 10
1360.389883541026
 20
638.0913772391533
 30
0.0
 11
1360.250608116411
 21
638.068252835309
 31
0.0
  0
LINE
  5
78
330
1F
100
AcDbEntity
  8
0
  6
Continuous
 62
     7
370
    15
100
AcDbLine
 10
1095.225554507203
 20
662.9857452653321
 30
0.0
 11
1095.225554507203
 21
662.3253855245866
 31
0.0
  0
SPLINE
  5
79
330
1F
100
AcDbEntity
  8
0
  6
Continuous
 62
     7
370
    15
100
AcDbSpline
210
0.0
220
0.0
230
1.0
 70
     8
 71
     3
 72
    12
 73
     8
 74
     0
 42
0.000000001
 43
0.00000001
 40
0.0
 40
0.0
 40
0.0
 40
0.0
 40
0.2149558080269411
 40
0.4299146119414309
 40
0.6447843317818259
 40
0.8594537701846963
 40
1.0
 40
1.0
 40
1.0
 40
1.0
 10
1095.225554507203
 20
662.3253855245866
 30
0.0
 10
1095.236624738868
 20
662.32044436161
 30
0.0
 10
1095.258765356485
 20
662.3105619667908
 30
0.0
 10
1095.431436438959
 20
662.2972315107924
 30
0.0
 10
1095.68552193053
 20
662.2871095753726
 30
0.0
 10
1095.966646397917
 20
662.2817309399134
 30
0.0
 10
1096.152155242812
 20
662.2811834021818
 30
0.0
 10
1096.225554507203
 20
662.2809667609389
 30
0.0
  0
LINE
  5
7A
330
1F
100
AcDbEntity
  8
0
  6
Continuous
 62
     7
370
    15
100
AcDbLine
 10
1096.225554507203
 20
662.2809667609388
 30
0.0
 11
1142.725554507203
 21
662.2809667609388
 31
0.0
  0
SPLINE
  5
7B
330
1F
100
AcDbEntity
  8
0
  6
Continuous
 62
     7
370
    15
100
AcDbSpline
210
0.0
220
0.0
230
1.0
 70
     8
 71
     3
 72
    12
 73
     8
 74
     0
 42
0.000000001
 43
0.00000001
 40
0.0
 40
0.0
 40
0.0
 40
0.0
 40
0.2144270413371033
 40
0.4288506253483804
 40
0.643373888975371
 40
0.8581025396514049
 40
1.0
 40
1.0
 40
1.0
 40
1.0
 10
1142.725554507203
 20
662.2809667609388
 30
0.0
 10
1142.837894393201
 20
662.2814643811881
 30
0.0
 10
1143.062572353878
 20
662.2824596136634
 30
0.0
 10
1143.36205358286
 20
662.2901964671194
 30
0.0
 10
1143.588217026295
 20
662.3015117984522
 30
0.0
 10
1143.708374895366
 20
662.3139731421469
 30
0.0
 10
1143.720664581371
 20
662.3221371564498
 30
0.0
 10
1143.725554507203
 20
662.3253855245866
 30
0.0
  0
LINE
  5
7C
330
1F
100
AcDbEntity
  8
0
  6
Continuous
 62
     7
370
    15
100
AcDbLine
 10
1143.725554507203
 20
662.3253855245866
 30
0.0
 11
1143.725554507203
 21
662.9857452653321
 31
0.0
  0
SPLINE
  5
7D
330
1F
100
AcDbEntity
  8
0
  6
Continuous
 62
     7
370
    15
100
AcDbSpline
210
0.0
220
0.0
230
1.0
 70
     8
 71
     3
 72
    12
 73
     8
 74
     0
 42
0.000000001
 43
0.00000001
 40
0.0
 40
0.0
 40
0.0
 40
0.0
 40
0.2147272999791325
 40
0.4294551206243619
 40
0.6441687027430771
 40
0.8588570896271158
 40
1.0
 40
1.0
 40
1.0
 40
1.0
 10
1143.725554507203
 20
662.9857452653321
 30
0.0
 10
1143.714498232344
 20
662.9875583593748
 30
0.0
 10
1143.692385655816
 20
662.9911845518568
 30
0.0
 10
1143.519943703099
 20
662.9958571320324
 30
0.0
 10
1143.266155032795
 20
662.9993147520773
 30
0.0
 10
1142.984988879113
 20
663.0011163902509
 30
0.0
 10
1142.79923503577
 20
663.0012995317567
 30
0.0
 10
1142.725554507203
 20
663.0013721760838
 30
0.0
  0
LINE
  5
7E
330
1F
100
AcDbEntity
  8
0
  6
Continuous
 62
     7
370
    15
100
AcDbLine
 10
1142.725554507203
 20
663.0013721760837
 30
0.0
 11
1096.225554507203
 21
663.0013721760837
 31
0.0
  0
SPLINE
  5
7F
330
1F
100
AcDbEntity
  8
0
  6
Continuous
 62
     7
370
    15
100
AcDbSpline
210
0.0
220
0.0
230
1.0
 70
     8
 71
     3
 72
    12
 73
     8
 74
     0
 42
0.000000001
 43
0.00000001
 40
0.0
 40
0.0
 40
0.0
 40
0.0
 40
0.2146620845835605
 40
0.4293238139032429
 40
0.6439959070804636
 40
0.8586912898337158
 40
1.0
 40
1.0
 40
1.0
 40
1.0
 10
1096.225554507203
 20
663.0013721760837
 30
0.0
 10
1096.113140193745
 20
663.0012067361058
 30
0.0
 10
1095.888311752873
 20
663.000875856424
 30
0.0
 10
1095.588659733771
 20
662.9982724247276
 30
0.0
 10
1095.362506156055
 20
662.9943669644603
 30
0.0
 10
1095.242638290525
 20
662.9899425007629
 30
0.0
 10
1095.230408770699
 20
662.9869378867995
 30
0.0
 10
1095.225554507203
 20
662.9857452653321
 30
0.0
  0
SPLINE
  5
80
330
1F
100
AcDbEntity
  8
0
  6
Continuous
 62
     7
370
    15
100
AcDbSpline
210
0.0
220
0.0
230
1.0
 70
     8
 71
     3
 72
    11
 73
     7
 74
     0
 42
0.000000001
 43
0.00000001
 40
0.0
 40
0.0
 40
0.0
 40
0.0
 40
0.2498141199733742
 40
0.4997214832093029
 40
0.7498353064937646
 40
1.0
 40
1.0
 40
1.0
 40
1.0
 10
1142.402610864318
 20
652.4714512685143
 30
0.0
 10
1159.24927900405
 20
652.5253488734988
 30
0.0
 10
1192.948903311991
 20
652.6331642007798
 30
0.0
 10
1243.478000966272
 20
652.9894443453101
 30
0.0
 10
1293.998512084484
 20
653.4356891987901
 30
0.0
 10
1327.648733138822
 20
653.8156877016835
 30
0.0
 10
1344.475554507203
 20
654.0057062729765
 30
0.0
  0
LINE
  5
81
330
1F
100
AcDbEntity
  8
0
  6
Continuous
 62
     7
370
    15
100
AcDbLine
 10
1096.548498150112
 20
652.4714512685141
 30
0.0
 11
1142.402610864318
 21
652.4714512685142
 31
0.0
  0
SPLINE
  5
82
330
1F
100
AcDbEntity
  8
0
  6
Continuous
 62
     7
370
    15
100
AcDbSpline
210
0.0
220
0.0
230
1.0
 70
     8
 71
     3
 72
    11
 73
     7
 74
     0
 42
0.000000001
 43
0.00000001
 40
0.0
 40
0.0
 40
0.0
 40
0.0
 40
0.2498572747263398
 40
0.4997639547473462
 40
0.7498433433767429
 40
1.0
 40
1.0
 40
1.0
 40
1.0
 10
894.4755545072031
 20
654.0057062729765
 30
0.0
 10
911.2816912679917
 20
653.8159114644908
 30
0.0
 10
944.8972879353119
 20
653.4362843186202
 30
0.0
 10
995.394656318597
 20
652.9900712472826
 30
0.0
 10
1045.944411681715
 20
652.6334237031235
 30
0.0
 10
1079.678732425096
 20
652.5254476394886
 30
0.0
 10
1096.548498150112
 20
652.4714512685141
 30
0.0
  0
SPLINE
  5
83
330
1F
100
AcDbEntity
  8
0
  6
Continuous
 62
     7
370
    15
100
AcDbSpline
210
0.0
220
0.0
230
1.0
 70
     8
 71
     3
 72
    21
 73
    17
 74
     0
 42
0.000000001
 43
0.00000001
 40
0.0
 40
0.0
 40
0.0
 40
0.0
 40
0.1176894399501286
 40
0.2395304377820303
 40
0.3666526845216512
 40
0.5000592029695324
 40
0.5569847195059998
 40
0.617600377931323
 40
0.6819444817521177
 40
0.7500485441532574
 40
0.7780369754780515
 40
0.8114945557602852
 40
0.8504210769763065
 40
0.8948154678722381
 40
0.9446759371137461
 40
0.9999999999999999
 40
0.9999999999999999
 40
0.9999999999999999
 40
0.9999999999999999
 10
894.4677868441781
 20
331.4494413030102
 30
0.0
 10
894.4623693851586
 20
331.8554299058974
 30
0.0
 10
894.4513433633572
 20
332.6817285765792
 30
0.0
 10
895.2668420458677
 20
335.2600339438523
 30
0.0
 10
896.7010048078957
 20
338.8066094283219
 30
0.0
 10
898.3922491292262
 20
342.4165440700778
 30
0.0
 10
899.9654513962074
 20
345.5228908885865
 30
0.0
 10
901.1965532199932
 20
347.8781993942234
 30
0.0
 10
902.5906165123791
 20
350.4754190290904
 30
0.0
 10
903.8135859872125
 20
352.7051528593763
 30
0.0
 10
904.838295543643
 20
354.5342313638079
 30
0.0
 10
905.647990167406
 20
355.9650703222173
 30
0.0
 10
906.604062543182
 20
357.64862289721
 30
0.0
 10
907.7097398937273
 20
359.5901392374845
 30
0.0
 10
908.9664754608559
 20
361.791648361277
 30
0.0
 10
909.8641048150906
 20
363.351985336158
 30
0.0
 10
910.3362322452141
 20
364.1726780670741
 30
0.0
  0
SPLINE
  5
84
330
1F
100
AcDbEntity
  8
0
  6
Continuous
 62
     7
370
    15
100
AcDbSpline
210
0.0
220
0.0
230
1.0
 70
     8
 71
     3
 72
    19
 73
    15
 74
     0
 42
0.000000001
 43
0.00000001
 40
0.0
 40
0.0
 40
0.0
 40
0.0
 40
0.0836286577044958
 40
0.1672799596736047
 40
0.2509311265976359
 40
0.3346065009507802
 40
0.4176633911632195
 40
0.5007497760524822
 40
0.5838361618462975
 40
0.6670129076039749
 40
0.7501897982259782
 40
0.833452072308676
 40
0.916714478720999
 40
1.0
 40
1.0
 40
1.0
 40
1.0
 10
910.336232245214
 20
364.1726780670743
 30
0.0
 10
921.9818194842899
 20
364.2685681421713
 30
0.0
 10
945.2761472566146
 20
364.4603742566735
 30
0.0
 10
980.2455456822709
 20
364.6837433239264
 30
0.0
 10
1015.236984131838
 20
364.8572738736793
 30
0.0
 10
1050.1596799216
 20
364.9756846400551
 30
0.0
 10
1085.01312056023
 20
365.0435937639027
 30
0.0
 10
1119.789424187746
 20
365.0655716942948
 30
0.0
 10
1154.582407486036
 20
365.0428009402875
 30
0.0
 10
1189.382880440356
 20
364.9739843188015
 30
0.0
 10
1224.198330800566
 20
364.8551807421474
 30
0.0
 10
1259.011653468002
 20
364.6819132483349
 30
0.0
 10
1293.824711447168
 20
364.4591990851396
 30
0.0
 10
1317.017082053675
 20
364.2681939095097
 30
0.0
 10
1328.614876769192
 20
364.1726780670742
 30
0.0
  0
SPLINE
  5
85
330
1F
100
AcDbEntity
  8
0
  6
Continuous
 62
     7
370
    15
100
AcDbSpline
210
0.0
220
0.0
230
1.0
 70
     8
 71
     3
 72
    25
 73
    21
 74
     0
 42
0.000000001
 43
0.00000001
 40
0.0
 40
0.0
 40
0.0
 40
0.0
 40
0.062984833860582
 40
0.1261681282428578
 40
0.1875325564491237
 40
0.2501812864320236
 40
0.3329282407815901
 40
0.4160528763108586
 40
0.5003501005511133
 40
0.5610451207327912
 40
0.6247628837102372
 40
0.6851979254795846
 40
0.7501900433466506
 40
0.7824189934390782
 40
0.8172692183535535
 40
0.8547414875683399
 40
0.8904510976189725
 40
0.9270535403988448
 40
0.9565486800231948
 40
1.0
 40
1.0
 40
1.0
 40
1.0
 10
1344.483322141865
 20
331.4494413033173
 30
0.0
 10
1344.503090952351
 20
331.6411422566375
 30
0.0
 10
1344.542690863372
 20
332.0251481987078
 30
0.0
 10
1344.376009011124
 20
332.9632830561886
 30
0.0
 10
1344.047619794354
 20
334.1458660562818
 30
0.0
 10
1343.499762246219
 20
335.7310384318976
 30
0.0
 10
1342.670727769708
 20
337.8041771572334
 30
0.0
 10
1341.503185960308
 20
340.4182433331346
 30
0.0
 10
1340.229271029095
 20
343.0669010218487
 30
0.0
 10
1338.918520084854
 20
345.6582662600188
 30
0.0
 10
1337.660275786756
 20
348.0629126963532
 30
0.0
 10
1336.285814486323
 20
350.6148744889683
 30
0.0
 10
1335.079513981246
 20
352.807131777625
 30
0.0
 10
1334.035688661458
 20
354.6759042865113
 30
0.0
 10
1333.193528035598
 20
356.1716253584798
 30
0.0
 10
1332.308519809587
 20
357.7331796262421
 30
0.0
 10
1331.395504404686
 20
359.3335240221055
 30
0.0
 10
1330.539151060863
 20
360.8285140602937
 30
0.0
 10
1329.610302164379
 20
362.4451612958341
 30
0.0
 10
1328.986469316027
 20
363.5277956280395
 30
0.0
 10
1328.614876769192
 20
364.1726780670741
 30
0.0
  0
LINE
  5
86
330
1F
100
AcDbEntity
  8
0
  6
Continuous
 62
     7
370
    15
100
AcDbLine
 10
1344.475554507203
 20
331.4161582737369
 30
0.0
 11
1344.483322141865
 21
331.4494413033173
 31
0.0
  0
LINE
  5
87
330
1F
100
AcDbEntity
  8
0
  6
Continuous
 62
     7
370
    15
100
AcDbLine
 10
894.4755545072031
 20
331.4161582737369
 30
0.0
 11
894.4677868441781
 21
331.4494413030102
 31
0.0
  0
SPLINE
  5
88
330
1F
100
AcDbEntity
  8
0
  6
Continuous
 62
     7
370
    15
100
AcDbSpline
210
0.0
220
0.0
230
1.0
 70
     8
 71
     3
 72
    21
 73
    17
 74
     0
 42
0.000000001
 43
0.00000001
 40
0.0
 40
0.0
 40
0.0
 40
0.0
 40
0.1173306655534827
 40
0.238992693690133
 40
0.3661992977062052
 40
0.5000241207589142
 40
0.5568694526281246
 40
0.6174584874390895
 40
0.6818322635298406
 40
0.7500248916401476
 40
0.7780635784662674
 40
0.811551028804583
 40
0.850488286198291
 40
0.8948757246319637
 40
0.9447131860583977
 40
1.0
 40
1.0
 40
1.0
 40
1.0
 10
878.700500898114
 20
638.0682526754622
 30
0.0
 10
879.1061605414458
 20
637.9710386947344
 30
0.0
 10
879.932455103263
 20
637.773021995444
 30
0.0
 10
882.4917511923602
 20
636.6234292371308
 30
0.0
 10
886.0062245139761
 20
634.8462734608456
 30
0.0
 10
889.5738854891082
 20
632.8854686642825
 30
0.0
 10
892.6369918539667
 20
631.1148785330156
 30
0.0
 10
894.9531351696082
 20
629.7504662342941
 30
0.0
 10
897.5073122329967
 20
628.2226729416203
 30
0.0
 10
899.7000737558831
 20
626.8959973258376
 30
0.0
 10
901.4987452512306
 20
625.7923736241949
 30
0.0
 10
902.9050898200439
 20
624.9244042890396
 30
0.0
 10
904.5588475945774
 20
623.9044851252306
 30
0.0
 10
906.4654581677282
 20
622.7310350540608
 30
0.0
 10
908.6272173654903
 20
621.403807285052
 30
0.0
 10
910.1600640647472
 20
620.4625520043406
 30
0.0
 10
910.9662166871183
 20
619.9675283250423
 30
0.0
  0
SPLINE
  5
89
330
1F
100
AcDbEntity
  8
0
  6
Continuous
 62
     7
370
    15
100
AcDbSpline
210
0.0
220
0.0
230
1.0
 70
     8
 71
     3
 72
    12
 73
     8
 74
     0
 42
0.000000001
 43
0.00000001
 40
0.0
 40
0.0
 40
0.0
 40
0.0
 40
0.202063313434155
 40
0.404187677320765
 40
0.6064920211469236
 40
0.8088531507959944
 40
1.0
 40
1.0
 40
1.0
 40
1.0
 10
910.9662166871184
 20
619.9675283250424
 30
0.0
 10
911.0007269518478
 20
602.7326493538186
 30
0.0
 10
911.0697579080751
 20
568.257684146671
 30
0.0
 10
911.0432611539092
 20
516.5169762436951
 30
0.0
 10
910.9186199436529
 20
464.7644593355116
 30
0.0
 10
910.6911369140072
 20
413.969716846825
 30
0.0
 10
910.4522646560521
 20
380.4533048671144
 30
0.0
 10
910.336232245214
 20
364.1726780670741
 30
0.0
  0
SPLINE
  5
8A
330
1F
100
AcDbEntity
  8
0
  6
Continuous
 62
     7
370
    15
100
AcDbSpline
210
0.0
220
0.0
230
1.0
 70
     8
 71
     3
 72
    24
 73
    20
 74
     0
 42
0.000000001
 43
0.00000001
 40
0.0
 40
0.0
 40
0.0
 40
0.0
 40
0.062985679153957
 40
0.1261699478078475
 40
0.1875347099948328
 40
0.2501839170245944
 40
0.332930917078275
 40
0.4160556537076355
 40
0.5003528844835443
 40
0.561048021165371
 40
0.6247657965577039
 40
0.6852014556213314
 40
0.7501934868077642
 40
0.7880497459522636
 40
0.8294723423449843
 40
0.8744624211010895
 40
0.9141731599212659
 40
0.9514477795079798
 40
1.0
 40
1.0
 40
1.0
 40
1.0
 10
877.8176424669608
 20
348.0917864115058
 30
0.0
 10
878.0026205142528
 20
348.0788027433798
 30
0.0
 10
878.3731598318553
 20
348.0527944705181
 30
0.0
 10
879.2917003851724
 20
348.2393214541043
 30
0.0
 10
880.4552944339139
 20
348.5869972662721
 30
0.0
 10
882.0203245221904
 20
349.155376012443
 30
0.0
 10
884.0724858148209
 20
350.0058745405254
 30
0.0
 10
886.6654934799774
 20
351.1950774708567
 30
0.0
 10
889.2968746343658
 20
352.4868799772377
 30
0.0
 10
891.8740578619921
 20
353.8124078539548
 30
0.0
 10
894.2674029061233
 20
355.0825100914644
 30
0.0
 10
896.8091129894372
 20
356.4678272330162
 30
0.0
 10
899.0718804166534
 20
357.7253910241455
 30
0.0
 10
901.1093962711897
 20
358.8742522787396
 30
0.0
 10
902.8875865664489
 20
359.8848060515706
 30
0.0
 10
904.7139707495182
 20
360.9297335680159
 30
0.0
 10
906.4968658974282
 20
361.9554704521957
 30
0.0
 10
908.3443311900475
 20
363.02090803367
 30
0.0
 10
909.6165425940288
 20
363.756534418053
 30
0.0
 10
910.3362322452139
 20
364.1726780670741
 30
0.0
  0
SPLINE
  5
8B
330
1F
100
AcDbEntity
  8
0
  6
Continuous
 62
     7
370
    15
100
AcDbSpline
210
0.0
220
0.0
230
1.0
 70
     8
 71
     3
 72
    12
 73
     8
 74
     0
 42
0.000000001
 43
0.00000001
 40
0.0
 40
0.0
 40
0.0
 40
0.0
 40
0.1912926221321266
 40
0.3933255625434198
 40
0.5954131564951419
 40
0.7976757204889446
 40
1.0
 40
1.0
 40
1.0
 40
1.0
 10
1328.614876769192
 20
364.1726780670742
 30
0.0
 10
1328.49876153024
 20
380.4657236845844
 30
0.0
 10
1328.260011644479
 20
413.9666044902561
 30
0.0
 10
1328.03266741372
 20
464.727305337289
 30
0.0
 10
1327.90795255187
 20
516.445099413439
 30
0.0
 10
1327.881276916246
 20
568.2013695314633
 30
0.0
 10
1327.950350344796
 20
602.7103873965326
 30
0.0
 10
1327.984892327288
 20
619.9675283250423
 30
0.0
  0
SPLINE
  5
8C
330
1F
100
AcDbEntity
  8
0
  6
Continuous
 62
     7
370
    15
100
AcDbSpline
210
0.0
220
0.0
230
1.0
 70
     8
 71
     3
 72
    22
 73
    18
 74
     0
 42
0.000000001
 43
0.00000001
 40
0.0
 40
0.0
 40
0.0
 40
0.0
 40
0.1050841440713041
 40
0.1883657926375779
 40
0.249837700803143
 40
0.2957363315474659
 40
0.3399265589993855
 40
0.3824176200598267
 40
0.4232199475113418
 40
0.4623453396586041
 40
0.4998071688644851
 40
0.5676703167958206
 40
0.6337553133739466
 40
0.6981827515151419
 40
0.7610822093153441
 40
0.8827093039482654
 40
1.0
 40
1.0
 40
1.0
 40
1.0
 10
1327.984892327288
 20
619.9675283250423
 30
0.0
 10
1329.516857165672
 20
620.9076598592993
 30
0.0
 10
1332.262940065481
 20
622.5928676820297
 30
0.0
 10
1335.825105432202
 20
624.7877721884969
 30
0.0
 10
1338.483745527732
 20
626.428714388274
 30
0.0
 10
1340.561126391847
 20
627.6884162809356
 30
0.0
 10
1342.342628482006
 20
628.7610454739765
 30
0.0
 10
1344.017985721612
 20
629.7602544357819
 30
0.0
 10
1345.586902233374
 20
630.6868512592979
 30
0.0
 10
1347.050342022104
 20
631.5410848191835
 30
0.0
 10
1348.797407051099
 20
632.5462830727162
 30
0.0
 10
1350.775979436422
 20
633.6540718274648
 30
0.0
 10
1352.894331934422
 20
634.7974248713273
 30
0.0
 10
1354.771697008397
 20
635.7707410150748
 30
0.0
 10
1356.904328021561
 20
636.82244489855
 30
0.0
 10
1359.020136250734
 20
637.7738448422277
 30
0.0
 10
1359.845443986904
 20
637.9713115221599
 30
0.0
 10
1360.250608117021
 20
638.0682528351945
 30
0.0
  0
SPLINE
  5
8D
330
1F
100
AcDbEntity
  8
0
  6
Continuous
 62
     7
370
    15
100
AcDbSpline
210
0.0
220
0.0
230
1.0
 70
     8
 71
     3
 72
    21
 73
    17
 74
     0
 42
0.000000001
 43
0.00000001
 40
0.0
 40
0.0
 40
0.0
 40
0.0
 40
0.1176881341801243
 40
0.2395275573540709
 40
0.3666495337083227
 40
0.5000590177938683
 40
0.5569839870518202
 40
0.6175991341134361
 40
0.6819430437091708
 40
0.7500475302050524
 40
0.7780628231638904
 40
0.8115363195725107
 40
0.8504679905693976
 40
0.8948569739616903
 40
0.9447017165172595
 40
1.0
 40
1.0
 40
1.0
 40
1.0
 10
1361.133466547165
 20
348.0917864398888
 30
0.0
 10
1360.740032466545
 20
348.0990337302348
 30
0.0
 10
1359.939286452792
 20
348.1137839492445
 30
0.0
 10
1357.397850700611
 20
348.9666883224438
 30
0.0
 10
1353.886076495828
 20
350.4364817495253
 30
0.0
 10
1350.30101717313
 20
352.1534974320373
 30
0.0
 10
1347.211716572504
 20
353.744513833336
 30
0.0
 10
1344.867639114349
 20
354.9873761336729
 30
0.0
 10
1342.280990896098
 20
356.392613572491
 30
0.0
 10
1340.058482925108
 20
357.6239200365475
 30
0.0
 10
1338.234209434687
 20
358.6548224798821
 30
0.0
 10
1336.806521351657
 20
359.4690903906694
 30
0.0
 10
1335.126730497404
 20
360.4297040296221
 30
0.0
 10
1333.189359001958
 20
361.5396520826453
 30
0.0
 10
1330.992207558996
 20
362.8002118405097
 30
0.0
 10
1329.434256219156
 20
363.699638881009
 30
0.0
 10
1328.614876769192
 20
364.172678067074
 30
0.0
  0
LINE
  5
8E
330
1F
100
AcDbEntity
  8
0
  6
Continuous
 62
     7
370
    15
100
AcDbLine
 10
894.4207578801855
 20
653.7163583732192
 30
0.0
 11
894.4755545072031
 21
654.0057062729763
 31
0.0
  0
LWPOLYLINE
  5
8F
330
1F
100
AcDbEntity
  8
0
  6
Continuous
 62
     7
370
    15
100
AcDbPolyline
 90
       14
 70
   128
 43
0.0
 10
1096.14132165894
 20
619.0876921164481
 10
1096.152130803224
 20
622.773676918385
 10
1096.167368588067
 20
626.4056108279973
 10
1096.186864760614
 20
629.9429139893898
 10
1096.210401488743
 20
633.3460638627483
 10
1096.237715794917
 20
636.5770368124871
 10
1096.268502494451
 20
639.5997329480343
 10
1096.30241760536
 20
642.380379470477
 10
1096.339082191698
 20
644.8879080184449
 10
1096.378086597434
 20
647.0943017971229
 10
1096.418995023569
 20
648.974908611891
 10
1096.461350397347
 20
650.5087163090486
 10
1096.504679479166
 20
651.6785875461029
 10
1096.548498150112
 20
652.4714512685141
  0
SPLINE
  5
90
330
1F
100
AcDbEntity
  8
0
  6
Continuous
 62
     7
370
    15
100
AcDbSpline
210
0.0
220
0.0
230
1.0
 70
     8
 71
     3
 72
    11
 73
     7
 74
     0
 42
0.000000001
 43
0.00000001
 40
0.0
 40
0.0
 40
0.0
 40
0.0
 40
0.249853047576705
 40
0.4997794229799641
 40
0.7498696533239781
 40
1.0
 40
1.0
 40
1.0
 40
1.0
 10
1096.14132165894
 20
619.0876921164481
 30
0.0
 10
1080.704721671704
 20
619.078295617716
 30
0.0
 10
1049.826991304918
 20
619.0594998625314
 30
0.0
 10
1003.525156632902
 20
619.2350230379731
 30
0.0
 10
957.2300221541497
 20
619.5368584357775
 30
0.0
 10
926.3883096499944
 20
619.8239640202579
 30
0.0
 10
910.9662166871182
 20
619.9675283250422
 30
0.0
  0
SPLINE
  5
91
330
1F
100
AcDbEntity
  8
0
  6
Continuous
 62
     7
370
    15
100
AcDbSpline
210
0.0
220
0.0
230
1.0
 70
     8
 71
     3
 72
    22
 73
    18
 74
     0
 42
0.000000001
 43
0.00000001
 40
0.0
 40
0.0
 40
0.0
 40
0.0
 40
0.1051959624412119
 40
0.1884782389937786
 40
0.2498268101044451
 40
0.2957276218044763
 40
0.3399204474658392
 40
0.382413846234309
 40
0.4232175932020483
 40
0.46234285202235
 40
0.4998023864823932
 40
0.5676520474213684
 40
0.6337315305854678
 40
0.6981592891378957
 40
0.7610628660263127
 40
0.8827022177203795
 40
1.0
 40
1.0
 40
1.0
 40
1.0
 10
910.9662166871184
 20
619.9675283250425
 30
0.0
 10
910.0422484157946
 20
621.5149820173548
 30
0.0
 10
908.3867864700703
 20
624.2875346903191
 30
0.0
 10
906.2580147134887
 20
627.9078271097311
 30
0.0
 10
904.6783552096559
 20
630.6193469904464
 30
0.0
 10
903.474363077187
 20
632.745340288315
 30
0.0
 10
902.4543175121021
 20
634.5757095314854
 30
0.0
 10
901.5100865672721
 20
636.302508789302
 30
0.0
 10
900.6403144892314
 20
637.9248677897871
 30
0.0
 10
899.8442675312012
 20
639.4432308152732
 30
0.0
 10
898.9150334566558
 20
641.2620595963444
 30
0.0
 10
897.9043809288547
 20
643.332911222493
 30
0.0
 10
896.8830815702257
 20
645.5682050906341
 30
0.0
 10
896.0372430682442
 20
647.5687912796145
 30
0.0
 10
895.1592076515813
 20
649.8704991771912
 30
0.0
 10
894.4334863987815
 20
652.2075558192809
 30
0.0
 10
894.4249490106304
 20
653.219553637355
 30
0.0
 10
894.4207578801855
 20
653.7163583732192
 30
0.0
  0
SPLINE
  5
92
330
1F
100
AcDbEntity
  8
0
  6
Continuous
 62
     7
370
    15
100
AcDbSpline
210
0.0
220
0.0
230
1.0
 70
     8
 71
     3
 72
    23
 73
    19
 74
     0
 42
0.000000001
 43
0.00000001
 40
0.0
 40
0.0
 40
0.0
 40
0.0
 40
0.048744163628593
 40
0.0858467674925764
 40
0.1255376839558193
 40
0.1705683585940925
 40
0.2119984934689129
 40
0.2498290818713521
 40
0.3354593840439438
 40
0.4180681583459224
 40
0.4996513908389609
 40
0.5839594505534416
 40
0.667093883222926
 40
0.749785064709388
 40
0.8123915236138545
 40
0.8737048248261573
 40
0.9369780413400042
 40
0.9999999999999999
 40
0.9999999999999999
 40
0.9999999999999999
 40
0.9999999999999999
 10
1327.984892327288
 20
619.9675283250425
 30
0.0
 10
1328.414758871427
 20
620.684278947321
 30
0.0
 10
1329.171827010883
 20
621.9465987706693
 30
0.0
 10
1330.267444539114
 20
623.785076413993
 30
0.0
 10
1331.320732286783
 20
625.5609410470272
 30
0.0
 10
1332.395135010789
 20
627.3878390015968
 30
0.0
 10
1333.434107865465
 20
629.1717543205231
 30
0.0
 10
1334.783790405663
 20
631.5144021093162
 30
0.0
 10
1336.405469961423
 20
634.3908108114449
 30
0.0
 10
1338.233001884038
 20
637.753555031428
 30
0.0
 10
1339.883869934891
 20
640.9407009843866
 30
0.0
 10
1341.337369515017
 20
643.9286147323452
 30
0.0
 10
1342.564135828492
 20
646.6649096978225
 30
0.0
 10
1343.441809014999
 20
648.8711063685066
 30
0.0
 10
1344.027518446156
 20
650.5917239293924
 30
0.0
 10
1344.385268160595
 20
651.9084657585428
 30
0.0
 10
1344.57572222406
 20
652.9894936708306
 30
0.0
 10
1344.545454865239
 20
653.4743917003633
 30
0.0
 10
1344.530351293517
 20
653.7163583750954
 30
0.0
  0
SPLINE
  5
93
330
1F
100
AcDbEntity
  8
0
  6
Continuous
 62
     7
370
    15
100
AcDbSpline
210
0.0
220
0.0
230
1.0
 70
     8
 71
     3
 72
    11
 73
     7
 74
     0
 42
0.000000001
 43
0.00000001
 40
0.0
 40
0.0
 40
0.0
 40
0.0
 40
0.2498865268773859
 40
0.4998117341158349
 40
0.7498746690037484
 40
1.0
 40
1.0
 40
1.0
 40
1.0
 10
1327.984892327288
 20
619.9675283250423
 30
0.0
 10
1312.577836187669
 20
619.824096045207
 30
0.0
 10
1281.761339023973
 20
619.5372092834095
 30
0.0
 10
1235.483051767116
 20
619.2353351207571
 30
0.0
 10
1189.166196274589
 20
619.0595115227314
 30
0.0
 10
1158.26320866212
 20
619.0782978040428
 30
0.0
 10
1142.809787355488
 20
619.087692116448
 30
0.0
  0
LWPOLYLINE
  5
94
330
1F
100
AcDbEntity
  8
0
  6
Continuous
 62
     7
370
    15
100
AcDbPolyline
 90
       14
 70
   128
 43
0.0
 10
1142.809787355488
 20
619.0876921164404
 10
1142.798978211204
 20
622.773676918378
 10
1142.783740426361
 20
626.405610827991
 10
1142.764244253814
 20
629.9429139893845
 10
1142.740707525685
 20
633.3460638627437
 10
1142.713393219511
 20
636.5770368124832
 10
1142.682606519977
 20
639.5997329480313
 10
1142.648691409069
 20
642.3803794704746
 10
1142.612026822731
 20
644.8879080184435
 10
1142.573022416995
 20
647.0943017971221
 10
1142.53211399086
 20
648.9749086118906
 10
1142.489758617082
 20
650.5087163090485
 10
1142.446429535263
 20
651.678587546103
 10
1142.402610864318
 20
652.4714512685143
  0
LINE
  5
95
330
1F
100
AcDbEntity
  8
0
  6
Continuous
 62
     7
370
    15
100
AcDbLine
 10
1344.530351293517
 20
653.7163583750953
 30
0.0
 11
1344.475554507203
 21
654.0057062729765
 31
0.0
  0
SPLINE
  5
96
330
1F
100
AcDbEntity
  8
0
  6
Continuous
 62
     7
370
    15
100
AcDbSpline
210
0.0
220
0.0
230
1.0
 70
     8
 71
     3
 72
    15
 73
    11
 74
     0
 42
0.000000001
 43
0.00000001
 40
0.0
 40
0.0
 40
0.0
 40
0.0
 40
0.1250175861599302
 40
0.2500243465757327
 40
0.3750141314741703
 40
0.4999993491598725
 40
0.6249854214514593
 40
0.7499773342916894
 40
0.8749789669061743
 40
1.0
 40
1.0
 40
1.0
 40
1.0
 10
877.8176424669609
 20
348.0917864115057
 30
0.0
 10
877.9001043105412
 20
347.0165446187584
 30
0.0
 10
878.06502085702
 20
344.8661541425045
 30
0.0
 10
879.0854364640168
 20
341.7583053280055
 30
0.0
 10
880.6391048686041
 20
338.8854886298841
 30
0.0
 10
882.7264552893798
 20
336.3591656597457
 30
0.0
 10
885.254180051882
 20
334.272571467733
 30
0.0
 10
888.1289474817189
 20
332.7190240863285
 30
0.0
 10
891.2392315738642
 20
331.6981042281072
 30
0.0
 10
893.3915460845429
 20
331.5323332323696
 30
0.0
 10
894.4677868441779
 20
331.4494413030103
 30
0.0
  0
SPLINE
  5
97
330
1F
100
AcDbEntity
  8
0
  6
Continuous
 62
     7
370
    15
100
AcDbSpline
210
0.0
220
0.0
230
1.0
 70
     8
 71
     3
 72
    15
 73
    11
 74
     0
 42
0.000000001
 43
0.00000001
 40
0.0
 40
0.0
 40
0.0
 40
0.0
 40
0.1250210332022318
 40
0.2500226657084382
 40
0.37501457854792
 40
0.5000006508387348
 40
0.6249858685252022
 40
0.7499756534243902
 40
0.8749824139484649
 40
1.0
 40
1.0
 40
1.0
 40
1.0
 10
1361.133466547165
 20
348.0917864398888
 30
0.0
 10
1361.051001014303
 20
347.0165148356951
 30
0.0
 10
1360.886082745535
 20
344.8661384873711
 30
0.0
 10
1359.865662825186
 20
341.7582892376524
 30
0.0
 10
1358.312005874738
 20
338.8854866012391
 30
0.0
 10
1356.224639974774
 20
336.3591519330958
 30
0.0
 10
1353.696926905465
 20
334.2725732042142
 30
0.0
 10
1350.822145396413
 20
332.7190143675667
 30
0.0
 10
1347.711861727386
 20
331.6980988154116
 30
0.0
 10
1345.559533067471
 20
331.532329533169
 30
0.0
 10
1344.483322141865
 20
331.4494413033174
 30
0.0
  0
SPLINE
  5
98
330
1F
100
AcDbEntity
  8
0
  6
Continuous
 62
     7
370
    15
100
AcDbSpline
210
0.0
220
0.0
230
1.0
 70
     8
 71
     3
 72
    15
 73
    11
 74
     0
 42
0.000000001
 43
0.00000001
 40
0.0
 40
0.0
 40
0.0
 40
0.0
 40
0.1251302371343368
 40
0.2501416319049704
 40
0.3750909220886515
 40
0.4999994222122436
 40
0.6249092593690383
 40
0.7498598872286176
 40
0.8748716523674656
 40
1.0
 40
1.0
 40
1.0
 40
1.0
 10
1360.250608116716
 20
638.0682528352523
 30
0.0
 10
1360.164709515589
 20
639.0730697038996
 30
0.0
 10
1359.992993895478
 20
641.0817491170076
 30
0.0
 10
1359.018293404508
 20
643.9866277148592
 30
0.0
 10
1357.542958284143
 20
646.6716985854792
 30
0.0
 10
1355.575814710705
 20
649.0403212368979
 30
0.0
 10
1353.194779568922
 20
650.9999150218156
 30
0.0
 10
1350.492918288093
 20
652.4728642007406
 30
0.0
 10
1347.567661591286
 20
653.4500231802746
 30
0.0
 10
1345.543102587345
 20
653.6275523965476
 30
0.0
 10
1344.530351293517
 20
653.7163583750954
 30
0.0
  0
SPLINE
  5
99
330
1F
100
AcDbEntity
  8
0
  6
Continuous
 62
     7
370
    15
100
AcDbSpline
210
0.0
220
0.0
230
1.0
 70
     8
 71
     3
 72
    15
 73
    11
 74
     0
 42
0.000000001
 43
0.00000001
 40
0.0
 40
0.0
 40
0.0
 40
0.0
 40
0.1251283509382355
 40
0.2501401128305227
 40
0.3750907407025414
 40
0.5000005778709928
 40
0.624909077981403
 40
0.7498583681518058
 40
0.8748697661694127
 40
1.0
 40
1.0
 40
1.0
 40
1.0
 10
878.700500898724
 20
638.0682526755768
 30
0.0
 10
878.7863993874203
 20
639.0730540467525
 30
0.0
 10
878.9581163284122
 20
641.0817205597654
 30
0.0
 10
879.9328003228585
 20
643.9866026811918
 30
0.0
 10
881.4081517126898
 20
646.6716940266456
 30
0.0
 10
883.3752997479161
 20
649.040326559226
 30
0.0
 10
885.7563249913159
 20
650.9999159227733
 30
0.0
 10
888.4581657419021
 20
652.4728489212092
 30
0.0
 10
891.3834188858858
 20
653.4500242696117
 30
0.0
 10
893.4079909414968
 20
653.6275522257047
 30
0.0
 10
894.4207578801855
 20
653.716358373219
 30
0.0
  0
LINE
  5
9A
330
1F
100
AcDbEntity
  8
0
  6
Continuous
 62
     7
370
    15
100
AcDbLine
 10
1142.80978735549
 20
619.0876921164482
 30
0.0
 11
1125.792166603721
 21
619.1309650188992
 31
0.0
  0
SPLINE
  5
9B
330
1F
100
AcDbEntity
  8
0
  6
Continuous
 62
     7
370
    15
100
AcDbSpline
210
0.0
220
0.0
230
1.0
 70
     8
 71
     3
 72
     9
 73
     5
 74
     0
 42
0.000000001
 43
0.00000001
 40
0.0
 40
0.0
 40
0.0
 40
0.0
 40
0.4980305418525764
 40
0.9999999999999999
 40
0.9999999999999999
 40
0.9999999999999999
 40
0.9999999999999999
 10
1113.158942410684
 20
619.1309650188991
 30
0.0
 10
1115.256161390713
 20
619.27193595827
 30
0.0
 10
1119.467186225109
 20
619.5549927741163
 30
0.0
 10
1123.678310721884
 20
619.2726782750317
 30
0.0
 10
1125.792166603721
 20
619.1309650188991
 30
0.0
  0
LINE
  5
9C
330
1F
100
AcDbEntity
  8
0
  6
Continuous
 62
     7
370
    15
100
AcDbLine
 10
1113.158942410684
 20
619.1309650188991
 30
0.0
 11
1096.14132165894
 21
619.0876921164482
 31
0.0
  0
ARC
  5
9D
330
1F
100
AcDbEntity
  8
0
  6
Continuous
 62
     7
370
    15
100
AcDbCircle
 10
1119.475554507203
 20
553.0913772391533
 30
0.0
 40
70.00000000000013
100
AcDbArc
 50
109.4720015611987
 51
70.5279984387829
  0
SPLINE
  5
9E
330
1F
100
AcDbEntity
  8
0
  6
Continuous
 62
     7
370
    15
100
AcDbSpline
210
0.0
220
0.0
230
1.0
 70
     8
 71
     3
 72
     9
 73
     5
 74
     0
 42
0.000000001
 43
0.00000001
 40
0.0
 40
0.0
 40
0.0
 40
0.0
 40
0.4976838706392814
 40
1.0
 40
1.0
 40
1.0
 40
1.0
 10
1125.72820556114
 20
618.4622583100701
 30
0.0
 10
1123.653677199108
 20
618.6135560231413
 30
0.0
 10
1119.485311526803
 20
618.9175596728413
 30
0.0
 10
1115.316809337984
 20
618.6144933914688
 30
0.0
 10
1113.222903453265
 20
618.4622583100701
 30
0.0
  0
LINE
  5
9F
330
1F
100
AcDbEntity
  8
0
  6
Continuous
 62
     7
370
    15
100
AcDbLine
 10
1113.158942410684
 20
619.1309650188991
 30
0.0
 11
1113.222903453265
 21
618.46225831007
 31
0.0
  0
LINE
  5
A0
330
1F
100
AcDbEntity
  8
0
  6
Continuous
 62
     7
370
    15
100
AcDbLine
 10
1125.72820556114
 20
618.4622583100701
 30
0.0
 11
1125.792166603721
 21
619.1309650188992
 31
0.0
  0
CIRCLE
  5
A1
330
1F
100
AcDbEntity
  8
0
  6
Continuous
 62
     7
370
    15
100
AcDbCircle
 10
1119.475554507203
 20
553.0913772391533
 30
0.0
 40
58.61177143234625
  0
ARC
  5
A2
330
1F
100
AcDbEntity
  8
0
  6
Continuous
 62
     7
370
    15
100
AcDbCircle
 10
1119.475554507203
 20
553.0913772391533
 30
0.0
 40
65.66922975938004
100
AcDbArc
 50
95.46365535823782
 51
84.53634464176338
  0
ARC
  5
A3
330
1F
100
AcDbEntity
  8
0
  6
Continuous
 62
     7
370
    15
100
AcDbCircle
 10
1119.475554507203
 20
553.0913772391533
 30
0.0
 40
66.34098840458023
100
AcDbArc
 50
95.46365535823782
 51
84.53634464176338
  0
CIRCLE
  5
A4
330
1F
100
AcDbEntity
  8
0
  6
Continuous
 62
     7
370
    15
100
AcDbCircle
 10
1119.475554507203
 20
553.0913772391533
 30
0.0
 40
57.5
  0
CIRCLE
  5
A5
330
1F
100
AcDbEntity
  8
0
  6
Continuous
 62
     7
370
    15
100
AcDbCircle
 10
1119.475554507203
 20
553.0913772391533
 30
0.0
 40
56.58715574274765
  0
CIRCLE
  5
A6
330
1F
100
AcDbEntity
  8
0
  6
Continuous
 62
     7
370
    15
100
AcDbCircle
 10
1119.475554507203
 20
553.0913772391533
 30
0.0
 40
45.00000000000023
  0
ARC
  5
A7
330
1F
100
AcDbEntity
  8
0
  6
Continuous
 62
     7
370
    15
100
AcDbCircle
 10
809.4755545072032
 20
638.0913772391533
 30
0.0
 40
26.5
100
AcDbArc
 50
0.0
 51
90.0
  0
LINE
  5
A8
330
1F
100
AcDbEntity
  8
0
  6
Continuous
 62
     7
370
    15
100
AcDbLine
 10
835.9755545072032
 20
638.0913772391533
 30
0.0
 11
835.9755545072031
 21
348.0913772391534
 31
0.0
  0
LINE
  5
A9
330
1F
100
AcDbEntity
  8
0
  6
Continuous
 62
     7
370
    15
100
AcDbLine
 10
664.4755545072034
 20
638.0913772391532
 30
0.0
 11
664.4755545072034
 21
348.0913772391534
 31
0.0
  0
LINE
  5
AA
330
1F
100
AcDbEntity
  8
0
  6
Continuous
 62
     7
370
    15
100
AcDbLine
 10
809.4755545072032
 20
663.0913772391533
 30
0.0
 11
689.4755545072032
 21
663.0913772391533
 31
0.0
  0
ARC
  5
AB
330
1F
100
AcDbEntity
  8
0
  6
Continuous
 62
     7
370
    15
100
AcDbCircle
 10
689.4755545072032
 20
348.0913772391534
 30
0.0
 40
25.00000000000006
100
AcDbArc
 50
180.0
 51
270.0000000000008
  0
LINE
  5
AC
330
1F
100
AcDbEntity
  8
0
  6
Continuous
 62
     7
370
    15
100
AcDbLine
 10
835.9755545072032
 20
638.0913772391533
 30
0.0
 11
834.4755545072032
 21
638.0913772391533
 31
0.0
  0
ARC
  5
AD
330
1F
100
AcDbEntity
  8
0
  6
Continuous
 62
     7
370
    15
100
AcDbCircle
 10
809.4755545072032
 20
638.0913772391533
 30
0.0
 40
25.0
100
AcDbArc
 50
0.0
 51
90.0
  0
LINE
  5
AE
330
1F
100
AcDbEntity
  8
0
  6
Continuous
 62
     7
370
    15
100
AcDbLine
 10
689.4755545072032
 20
323.0913772391533
 30
0.0
 11
809.4755545072032
 21
323.0913772391533
 31
0.0
  0
ARC
  5
AF
330
1F
100
AcDbEntity
  8
0
  6
Continuous
 62
     7
370
    15
100
AcDbCircle
 10
689.4755545072032
 20
638.0913772391533
 30
0.0
 40
25.0
100
AcDbArc
 50
90.0
 51
180.0000000000011
  0
ARC
  5
B0
330
1F
100
AcDbEntity
  8
0
  6
Continuous
 62
     7
370
    15
100
AcDbCircle
 10
809.4755545072032
 20
348.0913772391534
 30
0.0
 40
25.00000000000006
100
AcDbArc
 50
270.0000000000008
 51
0.0
  0
LINE
  5
B1
330
1F
100
AcDbEntity
  8
0
  6
Continuous
 62
     7
370
    15
100
AcDbLine
 10
835.9755545072031
 20
348.0913772391534
 30
0.0
 11
834.4755545072032
 21
348.0913772391534
 31
0.0
  0
LINE
  5
B2
330
1F
100
AcDbEntity
  8
0
  6
Continuous
 62
     7
370
    15
100
AcDbLine
 10
834.4755545072032
 20
348.0913772391534
 30
0.0
 11
834.4755545072032
 21
638.0913772391533
 31
0.0
  0
LINE
  5
B3
330
1F
100
AcDbEntity
  8
0
  6
Continuous
 62
     7
370
    15
100
AcDbLine
 10
834.4755545072028
 20
348.0913772391534
 30
0.0
 11
832.5182282660701
 21
348.0913772391534
 31
0.0
  0
SPLINE
  5
B4
330
1F
100
AcDbEntity
  8
0
  6
Continuous
 62
     7
370
    15
100
AcDbSpline
210
0.0
220
0.0
230
1.0
 70
     8
 71
     3
 72
    23
 73
    19
 74
     0
 42
0.000000001
 43
0.00000001
 40
0.0
 40
0.0
 40
0.0
 40
0.0
 40
0.0569686171349745
 40
0.1176844599235766
 40
0.1821502538131105
 40
0.2499421887828469
 40
0.2955170094318845
 40
0.3394545105676399
 40
0.3905454113936729
 40
0.4487897877835463
 40
0.5133944333990857
 40
0.5741292218096661
 40
0.6412346369939881
 40
0.6985478806667604
 40
0.7460691694644586
 40
0.8109229792435834
 40
0.9095852907792831
 40
1.0
 40
1.0
 40
1.0
 40
1.0
 10
831.5523185768735
 20
462.4211411142562
 30
0.0
 10
831.5666443057809
 20
460.2472880707036
 30
0.0
 10
831.5962380672983
 20
455.7565924166811
 30
0.0
 10
831.6499782895504
 20
448.8094595946489
 30
0.0
 10
831.7117295647524
 20
441.4522207562164
 30
0.0
 10
831.7727360973759
 20
434.6747849211578
 30
0.0
 10
831.8295401765355
 20
428.6817506520223
 30
0.0
 10
831.881296731286
 20
423.3258984904529
 30
0.0
 10
831.9381125707393
 20
417.4880534667587
 30
0.0
 10
832.0026116999359
 20
410.8635538259489
 30
0.0
 10
832.07064285281
 20
403.872365241531
 30
0.0
 10
832.1404829427848
 20
396.5434197338278
 30
0.0
 10
832.2057775457481
 20
389.4915200240908
 30
0.0
 10
832.264389564941
 20
382.942081626241
 30
0.0
 10
832.3199173127899
 20
376.4772922719155
 30
0.0
 10
832.3843609822214
 20
368.4347359775552
 30
0.0
 10
832.4553241385634
 20
358.7540332919791
 30
0.0
 10
832.4978789755999
 20
351.5407134560626
 30
0.0
 10
832.5182282660701
 20
348.0913772391534
 30
0.0
  0
SPLINE
  5
B5
330
1F
100
AcDbEntity
  8
0
  6
Continuous
 62
     7
370
    15
100
AcDbSpline
210
0.0
220
0.0
230
1.0
 70
     8
 71
     3
 72
    18
 73
    14
 74
     0
 42
0.000000001
 43
0.00000001
 40
0.0
 40
0.0
 40
0.0
 40
0.0
 40
0.0898439705752039
 40
0.1868102208065522
 40
0.2832836172719974
 40
0.3809347368849793
 40
0.4700751813434133
 40
0.5507682697347215
 40
0.6357416250465573
 40
0.7331196176100803
 40
0.8239184293996893
 40
0.9120626080497203
 40
1.0
 40
1.0
 40
1.0
 40
1.0
 10
831.5515812062445
 20
523.7583506651911
 30
0.0
 10
831.5360869521209
 20
521.9187830021326
 30
0.0
 10
831.5038701543155
 20
518.0938180197926
 30
0.0
 10
831.4233757939404
 20
512.3126826443273
 30
0.0
 10
831.3301100619464
 20
506.3809887638224
 30
0.0
 10
831.2613140586093
 20
500.5901230873753
 30
0.0
 10
831.226866839169
 20
495.1061215917781
 30
0.0
 10
831.2327956088519
 20
489.8764196762434
 30
0.0
 10
831.2760171179968
 20
484.4875469908799
 30
0.0
 10
831.3459179297867
 20
478.9065564349676
 30
0.0
 10
831.4280022368974
 20
473.2708459804665
 30
0.0
 10
831.5093098344634
 20
467.828646937374
 30
0.0
 10
831.5376466899689
 20
464.2221046097479
 30
0.0
 10
831.5517984786017
 20
462.4209511717789
 30
0.0
  0
SPLINE
  5
B6
330
1F
100
AcDbEntity
  8
0
  6
Continuous
 62
     7
370
    15
100
AcDbSpline
210
0.0
220
0.0
230
1.0
 70
     8
 71
     3
 72
    24
 73
    20
 74
     0
 42
0.000000001
 43
0.00000001
 40
0.0
 40
0.0
 40
0.0
 40
0.0
 40
0.0576439052250635
 40
0.1187520331960777
 40
0.1833264217921389
 40
0.2509879593986528
 40
0.298750208225231
 40
0.3434079345749506
 40
0.3943404066283764
 40
0.4515477042163358
 40
0.5151769116047649
 40
0.5774418779933489
 40
0.6325644690711386
 40
0.6805447452195148
 40
0.7213827985036078
 40
0.7585782333332437
 40
0.8121133241980575
 40
0.9105240118136383
 40
1.0
 40
1.0
 40
1.0
 40
1.0
 10
832.5182282660701
 20
638.0913772391533
 30
0.0
 10
832.5055411033042
 20
635.8920579002818
 30
0.0
 10
832.4794043180177
 20
631.3612468436971
 30
0.0
 10
832.4324551796386
 20
624.3698561423121
 30
0.0
 10
832.3783212745352
 20
616.9988152799006
 30
0.0
 10
832.3234770768822
 20
610.1388616049154
 30
0.0
 10
832.2712664210014
 20
604.039794650265
 30
0.0
 10
832.2226925203568
 20
598.5789905873934
 30
0.0
 10
832.169424865369
 20
592.7590173234303
 30
0.0
 10
832.1080100701397
 20
586.2169649636035
 30
0.0
 10
832.0406951493526
 20
579.2439328898062
 30
0.0
 10
831.9735767097299
 20
572.3500298764478
 30
0.0
 10
831.9121903169914
 20
566.0516251472299
 30
0.0
 10
831.8589485936519
 20
560.5688068084926
 30
0.0
 10
831.812790117401
 20
555.7682921438951
 30
0.0
 10
831.7657968992833
 20
550.7552019954773
 30
0.0
 10
831.7011304406009
 20
543.5464769681618
 30
0.0
 10
831.623582251
 20
534.3416648710275
 30
0.0
 10
831.5751359290737
 20
527.1723621369656
 30
0.0
 10
831.5520646681135
 20
523.7581740685495
 30
0.0
  0
LINE
  5
B7
330
1F
100
AcDbEntity
  8
0
  6
Continuous
 62
     7
370
    15
100
AcDbLine
 10
834.4755545072028
 20
638.0913772391533
 30
0.0
 11
832.5182317918469
 21
638.0913772391533
 31
0.0
  0
SPLINE
  5
B8
330
1F
100
AcDbEntity
  8
0
  6
Continuous
 62
     7
370
    15
100
AcDbSpline
210
0.0
220
0.0
230
1.0
 70
     8
 71
     3
 72
    15
 73
    11
 74
     0
 42
0.000000001
 43
0.00000001
 40
0.0
 40
0.0
 40
0.0
 40
0.0
 40
0.1129274527314698
 40
0.2293124733135256
 40
0.349151338604311
 40
0.4724399961936854
 40
0.5991740650656846
 40
0.7293488357467243
 40
0.8629592699851948
 40
1.0
 40
1.0
 40
1.0
 40
1.0
 10
809.4755545072031
 20
661.1442573923088
 30
0.0
 10
810.8380994723177
 20
661.0745324003327
 30
0.0
 10
813.6049072625748
 20
660.9329476042974
 30
0.0
 10
817.6839343517397
 20
659.7672060769189
 30
0.0
 10
821.6000921892314
 20
657.8671960942218
 30
0.0
 10
825.1821413759701
 20
655.1666332681435
 30
0.0
 10
828.2581743659041
 20
651.7281071046374
 30
0.0
 10
830.6268634892633
 20
647.6324807783109
 30
0.0
 10
832.215124919589
 20
643.0137141684042
 30
0.0
 10
832.4163437192942
 20
639.7459616340047
 30
0.0
 10
832.5182282660701
 20
638.0913772391533
 30
0.0
  0
LINE
  5
B9
330
1F
100
AcDbEntity
  8
0
  6
Continuous
 62
     7
370
    15
100
AcDbLine
 10
809.4755545072032
 20
663.0913772391528
 30
0.0
 11
809.4755545072032
 21
661.1442573923088
 31
0.0
  0
LINE
  5
BA
330
1F
100
AcDbEntity
  8
0
  6
Continuous
 62
     7
370
    15
100
AcDbLine
 10
809.4755545072032
 20
323.0913772391537
 30
0.0
 11
809.4755545072032
 21
325.0385675774003
 31
0.0
  0
SPLINE
  5
BB
330
1F
100
AcDbEntity
  8
0
  6
Continuous
 62
     7
370
    15
100
AcDbSpline
210
0.0
220
0.0
230
1.0
 70
     8
 71
     3
 72
    15
 73
    11
 74
     0
 42
0.000000001
 43
0.00000001
 40
0.0
 40
0.0
 40
0.0
 40
0.0
 40
0.1370471127045683
 40
0.2706621091727381
 40
0.400839619777998
 40
0.5275746046324022
 40
0.6508623528361428
 40
0.7706984821586427
 40
0.887078939188783
 40
1.0
 40
1.0
 40
1.0
 40
1.0
 10
832.5182282660701
 20
348.0913772391534
 30
0.0
 10
832.4163341676573
 20
346.4367154955418
 30
0.0
 10
832.2150977384878
 20
343.1688302504232
 30
0.0
 10
830.6267156755271
 20
338.5499246449346
 30
0.0
 10
828.2578970429951
 20
334.4542573065794
 30
0.0
 10
825.181764794771
 20
331.0157745143103
 30
0.0
 10
821.5996823211805
 20
328.3153119246077
 30
0.0
 10
817.6835778907804
 20
326.4154214426498
 30
0.0
 10
813.6046972402814
 20
325.2497841161976
 30
0.0
 10
810.8380221138
 20
325.1082141563319
 30
0.0
 10
809.4755545072032
 20
325.038497085998
 30
0.0
  0
LINE
  5
BC
330
1F
100
AcDbEntity
  8
0
  6
Continuous
 62
     7
370
    15
100
AcDbLine
 10
689.4755545072034
 20
323.0913772391537
 30
0.0
 11
689.4755545072034
 21
325.0384970859979
 31
0.0
  0
SPLINE
  5
BD
330
1F
100
AcDbEntity
  8
0
  6
Continuous
 62
     7
370
    15
100
AcDbSpline
210
0.0
220
0.0
230
1.0
 70
     8
 71
     3
 72
    12
 73
     8
 74
     0
 42
0.000000001
 43
0.00000001
 40
0.0
 40
0.0
 40
0.0
 40
0.0
 40
0.2046389042012557
 40
0.4030902001269409
 40
0.5969070152214185
 40
0.7953569189624431
 40
0.9999999999999999
 40
0.9999999999999999
 40
0.9999999999999999
 40
0.9999999999999999
 10
809.4755545072034
 20
325.038497085998
 30
0.0
 10
801.2907986438553
 20
325.0551595460987
 30
0.0
 10
785.1687670495963
 20
325.0879806482385
 30
0.0
 10
761.2911116520474
 20
325.110461469153
 30
0.0
 10
737.6603871589837
 20
325.1104627338785
 30
0.0
 10
713.7826203399949
 20
325.0879814846481
 30
0.0
 10
697.6604774084387
 20
325.0551599769677
 30
0.0
 10
689.4755545072034
 20
325.038497085998
 30
0.0
  0
LINE
  5
BE
330
1F
100
AcDbEntity
  8
0
  6
Continuous
 62
     7
370
    15
100
AcDbLine
 10
664.4755545072037
 20
638.0913772391533
 30
0.0
 11
666.4328807483365
 21
638.0913772391533
 31
0.0
  0
SPLINE
  5
BF
330
1F
100
AcDbEntity
  8
0
  6
Continuous
 62
     7
370
    15
100
AcDbSpline
210
0.0
220
0.0
230
1.0
 70
     8
 71
     3
 72
    23
 73
    19
 74
     0
 42
0.000000001
 43
0.00000001
 40
0.0
 40
0.0
 40
0.0
 40
0.0
 40
0.0569538715458331
 40
0.1176587068975876
 40
0.1821172410830118
 40
0.249906110964138
 40
0.2955028787947173
 40
0.3394469483615501
 40
0.3905350231837827
 40
0.4487671793338396
 40
0.5133595686516986
 40
0.5741084535235959
 40
0.6412230972224731
 40
0.6985362449339071
 40
0.7460481134506909
 40
0.8109074899900166
 40
0.909579055202096
 40
1.0
 40
1.0
 40
1.0
 40
1.0
 10
667.3990443459862
 20
523.7581741033212
 30
0.0
 10
667.3847276796365
 20
525.9315348446231
 30
0.0
 10
667.3551514558595
 20
530.4213931721256
 30
0.0
 10
667.3014204655902
 20
537.3674859034667
 30
0.0
 10
667.2396661409679
 20
544.724138801143
 30
0.0
 10
667.1786369806606
 20
551.5022217106625
 30
0.0
 10
667.1218052730111
 20
557.4964043176699
 30
0.0
 10
667.0700225726991
 20
562.8533942285269
 30
0.0
 10
667.013190555132
 20
568.6910887538381
 30
0.0
 10
666.9486787187119
 20
575.3147432529654
 30
0.0
 10
666.8806262279899
 20
582.3057408702447
 30
0.0
 10
666.8107561842294
 20
589.6353220440114
 30
0.0
 10
666.7454292525505
 20
596.6883126742365
 30
0.0
 10
666.6867957533747
 20
603.237931932284
 30
0.0
 10
666.6312492895245
 20
609.7027610701838
 30
0.0
 10
666.5667835675274
 20
617.7457630396293
 30
0.0
 10
666.4957956095488
 20
627.4275612409417
 30
0.0
 10
666.4532333327821
 20
634.6416960122798
 30
0.0
 10
666.4328807483364
 20
638.0913772391533
 30
0.0
  0
SPLINE
  5
C0
330
1F
100
AcDbEntity
  8
0
  6
Continuous
 62
     7
370
    15
100
AcDbSpline
210
0.0
220
0.0
230
1.0
 70
     8
 71
     3
 72
    18
 73
    14
 74
     0
 42
0.000000001
 43
0.00000001
 40
0.0
 40
0.0
 40
0.0
 40
0.0
 40
0.0898927453755114
 40
0.1869386535429713
 40
0.2834602253048761
 40
0.3811334162079003
 40
0.4703095502471985
 40
0.5509927390480508
 40
0.6359363297235544
 40
0.733294291784274
 40
0.8240390798178443
 40
0.91211139793217
 40
0.9999999999999999
 40
0.9999999999999999
 40
0.9999999999999999
 40
0.9999999999999999
 10
667.3993105341432
 20
462.4209509067662
 30
0.0
 10
667.4148210001324
 20
464.2615134473173
 30
0.0
 10
667.4470761683975
 20
468.0891002192527
 30
0.0
 10
667.5276651239341
 20
473.8738047169376
 30
0.0
 10
667.621016965898
 20
479.8085208731721
 30
0.0
 10
667.689841997855
 20
485.601554310378
 30
0.0
 10
667.7242603165712
 20
491.0865530079548
 30
0.0
 10
667.7182863534724
 20
496.3161695459468
 30
0.0
 10
667.6750508529997
 20
501.7038059534416
 30
0.0
 10
667.605184812971
 20
507.2826789393561
 30
0.0
 10
667.523173424863
 20
512.9154374719936
 30
0.0
 10
667.4419716604812
 20
518.3541182494748
 30
0.0
 10
667.4136659077042
 20
521.9581941892872
 30
0.0
 10
667.3995278079519
 20
523.758350699997
 30
0.0
  0
SPLINE
  5
C1
330
1F
100
AcDbEntity
  8
0
  6
Continuous
 62
     7
370
    15
100
AcDbSpline
210
0.0
220
0.0
230
1.0
 70
     8
 71
     3
 72
    24
 73
    20
 74
     0
 42
0.000000001
 43
0.00000001
 40
0.0
 40
0.0
 40
0.0
 40
0.0
 40
0.0576402070494221
 40
0.1187433728174725
 40
0.1833115309572911
 40
0.2509658918042573
 40
0.2987383070122559
 40
0.3433972421150151
 40
0.3943249571929099
 40
0.4515215320444342
 40
0.5151432463016993
 40
0.5774257419939991
 40
0.6325564671089456
 40
0.6805354818527802
 40
0.7213628780734209
 40
0.758541952021117
 40
0.8120798538640377
 40
0.9105028153548678
 40
0.9999999999999999
 40
0.9999999999999999
 40
0.9999999999999999
 40
0.9999999999999999
 10
666.4328807483364
 20
348.0913772391534
 30
0.0
 10
666.4455661848189
 20
350.2904870545148
 30
0.0
 10
666.4716991845199
 20
354.8208267260591
 30
0.0
 10
666.5186350855564
 20
361.8114355583131
 30
0.0
 10
666.5727494813326
 20
369.1815533702137
 30
0.0
 10
666.627575354227
 20
376.0411788377419
 30
0.0
 10
666.6797686706172
 20
382.1402261268815
 30
0.0
 10
666.7283269927391
 20
387.6011222413542
 30
0.0
 10
666.7815700474935
 20
393.4203816853754
 30
0.0
 10
666.8429539236738
 20
399.9613678862061
 30
0.0
 10
666.9102435243732
 20
406.934170207275
 30
0.0
 10
666.9773442742967
 20
413.8285632156926
 30
0.0
 10
667.0387184193152
 20
420.1277117906403
 30
0.0
 10
667.0919409482572
 20
425.6102236801043
 30
0.0
 10
667.1380745289446
 20
430.4095180402662
 30
0.0
 10
667.1850433780887
 20
435.4215364271722
 30
0.0
 10
667.2496909210399
 20
442.6299951225634
 30
0.0
 10
667.3272369942827
 20
451.835905771186
 30
0.0
 10
667.3757066885842
 20
459.0062542030713
 30
0.0
 10
667.3987904359618
 20
462.4211408492005
 30
0.0
  0
LINE
  5
C2
330
1F
100
AcDbEntity
  8
0
  6
Continuous
 62
     7
370
    15
100
AcDbLine
 10
664.4755545072036
 20
348.0913772391534
 30
0.0
 11
666.4328772225508
 21
348.0913772391534
 31
0.0
  0
SPLINE
  5
C3
330
1F
100
AcDbEntity
  8
0
  6
Continuous
 62
     7
370
    15
100
AcDbSpline
210
0.0
220
0.0
230
1.0
 70
     8
 71
     3
 72
    15
 73
    11
 74
     0
 42
0.000000001
 43
0.00000001
 40
0.0
 40
0.0
 40
0.0
 40
0.0
 40
0.1129231508546261
 40
0.2293051002133534
 40
0.3491421243516597
 40
0.4724301701232542
 40
0.5991648556243311
 40
0.7293414703431854
 40
0.8629549748407869
 40
1.0
 40
1.0
 40
1.0
 40
1.0
 10
689.4755545072032
 20
325.038497085998
 30
0.0
 10
688.1130615999045
 20
325.1082167276729
 30
0.0
 10
685.3463430813043
 20
325.2497915004286
 30
0.0
 10
681.2674145173362
 20
326.4154628702983
 30
0.0
 10
677.3512925931998
 20
328.3153924191985
 30
0.0
 10
673.769220981369
 20
331.0158877968221
 30
0.0
 10
670.6931211825289
 20
334.4543847961956
 30
0.0
 10
668.324344912403
 20
338.5500387533784
 30
0.0
 10
666.7360023306481
 20
343.1688989322234
 30
0.0
 10
666.5347717041142
 20
346.436740787128
 30
0.0
 10
666.4328807483364
 20
348.0913772391534
 30
0.0
  0
SPLINE
  5
C4
330
1F
100
AcDbEntity
  8
0
  6
Continuous
 62
     7
370
    15
100
AcDbSpline
210
0.0
220
0.0
230
1.0
 70
     8
 71
     3
 72
    11
 73
     7
 74
     0
 42
0.000000001
 43
0.00000001
 40
0.0
 40
0.0
 40
0.0
 40
0.0
 40
0.2499284732316512
 40
0.4998839834075816
 40
0.7499273644993492
 40
1.0
 40
1.0
 40
1.0
 40
1.0
 10
689.4755545072031
 20
661.1442573923088
 30
0.0
 10
699.4718164882801
 20
661.1242809844729
 30
0.0
 10
719.465421833338
 20
661.0843260077789
 30
0.0
 10
749.4651460422796
 20
661.0673813197501
 30
0.0
 10
779.4706395248759
 20
661.0843005153833
 30
0.0
 10
799.4735261551765
 20
661.1242709873061
 30
0.0
 10
809.4755545072032
 20
661.1442573923088
 30
0.0
  0
LINE
  5
C5
330
1F
100
AcDbEntity
  8
0
  6
Continuous
 62
     7
370
    15
100
AcDbLine
 10
689.4755545072032
 20
663.0913772391528
 30
0.0
 11
689.4755545072032
 21
661.1441164081069
 31
0.0
  0
SPLINE
  5
C6
330
1F
100
AcDbEntity
  8
0
  6
Continuous
 62
     7
370
    15
100
AcDbSpline
210
0.0
220
0.0
230
1.0
 70
     8
 71
     3
 72
    15
 73
    11
 74
     0
 42
0.000000001
 43
0.00000001
 40
0.0
 40
0.0
 40
0.0
 40
0.0
 40
0.1370431087078734
 40
0.2706552430351009
 40
0.4008310346008076
 40
0.527565444624128
 40
0.6508537631731462
 40
0.770691608845057
 40
0.8870749289151089
 40
1.0
 40
1.0
 40
1.0
 40
1.0
 10
666.4328807483364
 20
638.0913772391532
 30
0.0
 10
666.534768872088
 20
639.7459904542964
 30
0.0
 10
666.7359942759507
 20
643.0137924335137
 30
0.0
 10
668.324300687407
 20
647.6326108131192
 30
0.0
 10
670.6930380798875
 20
651.7282523943368
 30
0.0
 10
673.7691080479484
 20
655.1667623744311
 30
0.0
 10
677.3511696171191
 20
657.8672878406096
 30
0.0
 10
681.2673075271655
 20
659.7672533035303
 30
0.0
 10
685.3462800247062
 20
660.9329560308835
 30
0.0
 10
688.1130383715418
 20
661.0745353344388
 30
0.0
 10
689.4755545072032
 20
661.1442573923086
 30
0.0
  0
SPLINE
  5
C7
330
1F
100
AcDbEntity
  8
0
  6
Continuous
 62
     7
370
    15
100
AcDbSpline
210
0.0
220
0.0
230
1.0
 70
     8
 71
     3
 72
    11
 73
     7
 74
     0
 42
0.000000001
 43
0.00000001
 40
0.0
 40
0.0
 40
0.0
 40
0.0
 40
0.2499381449508734
 40
0.4998997088181103
 40
0.7499372127266087
 40
0.9999999999999999
 40
0.9999999999999999
 40
0.9999999999999999
 40
0.9999999999999999
 10
809.8684289684154
 20
642.2296625883421
 30
0.0
 10
799.8062032486794
 20
642.2317572759182
 30
0.0
 10
779.6808089902448
 20
642.2359468473401
 30
0.0
 10
749.4846117455226
 20
642.2407859347552
 30
0.0
 10
719.2833940743209
 20
642.2359505472338
 30
0.0
 10
699.1499240152915
 20
642.231758645282
 30
0.0
 10
689.0826800459911
 20
642.229662588342
 30
0.0
  0
SPLINE
  5
C8
330
1F
100
AcDbEntity
  8
0
  6
Continuous
 62
     7
370
    15
100
AcDbSpline
210
0.0
220
0.0
230
1.0
 70
     8
 71
     3
 72
    15
 73
    11
 74
     0
 42
0.000000001
 43
0.00000001
 40
0.0
 40
0.0
 40
0.0
 40
0.0
 40
0.1250000000000001
 40
0.2500000000000003
 40
0.3749999999999998
 40
0.5000000000000002
 40
0.6250000000000004
 40
0.7500000000000006
 40
0.8750000000000002
 40
1.0
 40
1.0
 40
1.0
 40
1.0
 10
689.082680045991
 20
642.229662588342
 30
0.0
 10
689.0875060058512
 20
643.4044233979391
 30
0.0
 10
689.0971579255722
 20
645.7539450171333
 30
0.0
 10
689.1267256616264
 20
649.1298373968211
 30
0.0
 10
689.1662964290387
 20
652.2625849873524
 30
0.0
 10
689.2157514976243
 20
655.0506091495598
 30
0.0
 10
689.2732489413612
 20
657.4117194655934
 30
0.0
 10
689.3370750110292
 20
659.2569215013973
 30
0.0
 10
689.40521696963
 20
660.5851762864539
 30
0.0
 10
689.4521086613454
 20
660.9578970236904
 30
0.0
 10
689.4755545072032
 20
661.1442573923088
 30
0.0
  0
SPLINE
  5
C9
330
1F
100
AcDbEntity
  8
0
  6
Continuous
 62
     7
370
    15
100
AcDbSpline
210
0.0
220
0.0
230
1.0
 70
     8
 71
     3
 72
    15
 73
    11
 74
     0
 42
0.000000001
 43
0.00000001
 40
0.0
 40
0.0
 40
0.0
 40
0.0
 40
0.1250000000000001
 40
0.2500000000000003
 40
0.3749999999999998
 40
0.5000000000000002
 40
0.6250000000000004
 40
0.7500000000000006
 40
0.8750000000000002
 40
1.0
 40
1.0
 40
1.0
 40
1.0
 10
809.8684289684155
 20
642.229662588342
 30
0.0
 10
809.863603008555
 20
643.4044233979391
 30
0.0
 10
809.853951088834
 20
645.7539450171333
 30
0.0
 10
809.8243833527803
 20
649.1298373968211
 30
0.0
 10
809.7848125853678
 20
652.2625849873524
 30
0.0
 10
809.7353575167823
 20
655.0506091495598
 30
0.0
 10
809.677860073045
 20
657.4117194655934
 30
0.0
 10
809.614034003377
 20
659.2569215013973
 30
0.0
 10
809.5458920447765
 20
660.5851762864539
 30
0.0
 10
809.499000353061
 20
660.9578970236904
 30
0.0
 10
809.4755545072032
 20
661.1442573923088
 30
0.0
  0
SPLINE
  5
CA
330
1F
100
AcDbEntity
  8
0
  6
Continuous
 62
     7
370
    15
100
AcDbSpline
210
0.0
220
0.0
230
1.0
 70
     8
 71
     3
 72
    11
 73
     7
 74
     0
 42
0.000000001
 43
0.00000001
 40
0.0
 40
0.0
 40
0.0
 40
0.0
 40
0.2532158001419186
 40
0.5064262141317675
 40
0.7537816217623085
 40
1.0
 40
1.0
 40
1.0
 40
1.0
 10
689.0826800459912
 20
642.2296625883421
 30
0.0
 10
688.6579297230259
 20
642.1854945359155
 30
0.0
 10
687.8084381119571
 20
642.0971593705605
 30
0.0
 10
686.767415529711
 20
641.3299268726755
 30
0.0
 10
686.0222421517719
 20
640.2907045145884
 30
0.0
 10
685.9400631512541
 20
639.4636086933242
 30
0.0
 10
685.8990683075003
 20
639.0510134591575
 30
0.0
  0
SPLINE
  5
CB
330
1F
100
AcDbEntity
  8
0
  6
Continuous
 62
     7
370
    15
100
AcDbSpline
210
0.0
220
0.0
230
1.0
 70
     8
 71
     3
 72
    15
 73
    11
 74
     0
 42
0.000000001
 43
0.00000001
 40
0.0
 40
0.0
 40
0.0
 40
0.0
 40
0.1178530449232341
 40
0.2416255560459393
 40
0.3696847140921821
 40
0.5000000000000016
 40
0.6303152859078196
 40
0.7583744439540608
 40
0.8821469550767675
 40
1.0
 40
1.0
 40
1.0
 40
1.0
 10
666.4328807483365
 20
638.0913772391532
 30
0.0
 10
666.6100932430563
 20
638.1461934417633
 30
0.0
 10
666.9734191766612
 20
638.2585791289099
 30
0.0
 10
668.2879393105534
 20
638.425473103372
 30
0.0
 10
670.2019498424991
 20
638.586962993673
 30
0.0
 10
672.7215993581451
 20
638.7340028795281
 30
0.0
 10
675.7140323325336
 20
638.8586954009053
 30
0.0
 10
679.0184763186907
 20
638.954462765154
 30
0.0
 10
682.4474485284533
 20
639.0214115525806
 30
0.0
 10
684.7674741047267
 20
639.041308639966
 30
0.0
 10
685.8990683075004
 20
639.0510134591574
 30
0.0
  0
SPLINE
  5
CC
330
1F
100
AcDbEntity
  8
0
  6
Continuous
 62
     7
370
    15
100
AcDbSpline
210
0.0
220
0.0
230
1.0
 70
     8
 71
     3
 72
    15
 73
    11
 74
     0
 42
0.000000001
 43
0.00000001
 40
0.0
 40
0.0
 40
0.0
 40
0.0
 40
0.1181237254843523
 40
0.2419504786112244
 40
0.369894060233811
 40
0.4999999999999998
 40
0.6301059397661886
 40
0.758049521388774
 40
0.8818762745156477
 40
1.0
 40
1.0
 40
1.0
 40
1.0
 10
809.4755545072032
 20
325.0384970859979
 30
0.0
 10
809.4977068684127
 20
325.2116173466819
 30
0.0
 10
809.5430811094892
 20
325.5662161350122
 30
0.0
 10
809.610479096785
 20
326.8403501230527
 30
0.0
 10
809.6757763003354
 20
328.6911395539892
 30
0.0
 10
809.7354704858268
 20
331.1261485866776
 30
0.0
 10
809.7864927916903
 20
334.0214874865948
 30
0.0
 10
809.8262457298209
 20
337.2282445753845
 30
0.0
 10
809.8547078732149
 20
340.5692121245023
 30
0.0
 10
809.8639277104404
 20
342.8429971374356
 30
0.0
 10
809.8684289684155
 20
343.9530918899646
 30
0.0
  0
SPLINE
  5
CD
330
1F
100
AcDbEntity
  8
0
  6
Continuous
 62
     7
370
    15
100
AcDbSpline
210
0.0
220
0.0
230
1.0
 70
     8
 71
     3
 72
    11
 73
     7
 74
     0
 42
0.000000001
 43
0.00000001
 40
0.0
 40
0.0
 40
0.0
 40
0.0
 40
0.2532158000091968
 40
0.506426214154633
 40
0.7537816217027171
 40
1.0
 40
1.0
 40
1.0
 40
1.0
 10
809.8684289684155
 20
343.9530918899646
 30
0.0
 10
810.2931792912028
 20
343.9972599421653
 30
0.0
 10
811.142670902399
 20
344.0855951071188
 30
0.0
 10
812.1836934844346
 20
344.8528276054134
 30
0.0
 10
812.9288668623005
 20
345.8920499636847
 30
0.0
 10
813.0110458630331
 20
346.7191457848919
 30
0.0
 10
813.052040706906
 20
347.1317410191492
 30
0.0
  0
SPLINE
  5
CE
330
1F
100
AcDbEntity
  8
0
  6
Continuous
 62
     7
370
    15
100
AcDbSpline
210
0.0
220
0.0
230
1.0
 70
     8
 71
     3
 72
    15
 73
    11
 74
     0
 42
0.000000001
 43
0.00000001
 40
0.0
 40
0.0
 40
0.0
 40
0.0
 40
0.1178530449232321
 40
0.2416255560459382
 40
0.3696847140921795
 40
0.5000000000000007
 40
0.6303152859078185
 40
0.7583744439540603
 40
0.882146955076766
 40
1.0
 40
1.0
 40
1.0
 40
1.0
 10
813.0520407069059
 20
347.1317410191492
 30
0.0
 10
814.18363490968
 20
347.1414458383407
 30
0.0
 10
816.5036604859534
 20
347.1613429257261
 30
0.0
 10
819.9326326957157
 20
347.2282917131528
 30
0.0
 10
823.2370766818725
 20
347.3240590774015
 30
0.0
 10
826.2295096562616
 20
347.4487515987786
 30
0.0
 10
828.7491591719073
 20
347.5957914846338
 30
0.0
 10
830.6631697038536
 20
347.7572813749346
 30
0.0
 10
831.9776898377451
 20
347.9241753493969
 30
0.0
 10
832.3410157713504
 20
348.0365610365433
 30
0.0
 10
832.5182282660701
 20
348.0913772391534
 30
0.0
  0
SPLINE
  5
CF
330
1F
100
AcDbEntity
  8
0
  6
Continuous
 62
     7
370
    15
100
AcDbSpline
210
0.0
220
0.0
230
1.0
 70
     8
 71
     3
 72
    15
 73
    11
 74
     0
 42
0.000000001
 43
0.00000001
 40
0.0
 40
0.0
 40
0.0
 40
0.0
 40
0.1178530449232341
 40
0.24162555604594
 40
0.3696847140921831
 40
0.5000000000000012
 40
0.6303152859078193
 40
0.7583744439540626
 40
0.8821469550767665
 40
1.0
 40
1.0
 40
1.0
 40
1.0
 10
666.4328807483365
 20
348.0913772391534
 30
0.0
 10
666.6100932430563
 20
348.0365610365432
 30
0.0
 10
666.9734191766614
 20
347.9241753493968
 30
0.0
 10
668.2879393105528
 20
347.7572813749345
 30
0.0
 10
670.2019498424996
 20
347.5957914846339
 30
0.0
 10
672.7215993581452
 20
347.4487515987785
 30
0.0
 10
675.7140323325336
 20
347.3240590774016
 30
0.0
 10
679.0184763186908
 20
347.2282917131527
 30
0.0
 10
682.4474485284528
 20
347.1613429257261
 30
0.0
 10
684.7674741047264
 20
347.1414458383407
 30
0.0
 10
685.8990683075003
 20
347.1317410191492
 30
0.0
  0
SPLINE
  5
D0
330
1F
100
AcDbEntity
  8
0
  6
Continuous
 62
     7
370
    15
100
AcDbSpline
210
0.0
220
0.0
230
1.0
 70
     8
 71
     3
 72
    11
 73
     7
 74
     0
 42
0.000000001
 43
0.00000001
 40
0.0
 40
0.0
 40
0.0
 40
0.0
 40
0.2462996574075759
 40
0.4937921614712543
 40
0.7468662632991312
 40
1.0
 40
1.0
 40
1.0
 40
1.0
 10
685.8990683075003
 20
347.1317410191492
 30
0.0
 10
685.9401130368246
 20
346.7190118415473
 30
0.0
 10
686.0224012779998
 20
345.8915546097531
 30
0.0
 10
686.7678986942831
 20
344.8523395266264
 30
0.0
 10
687.8089332966555
 20
344.0854300188981
 30
0.0
 10
688.6580644516554
 20
343.9972080639997
 30
0.0
 10
689.082680045991
 20
343.9530918899646
 30
0.0
  0
SPLINE
  5
D1
330
1F
100
AcDbEntity
  8
0
  6
Continuous
 62
     7
370
    15
100
AcDbSpline
210
0.0
220
0.0
230
1.0
 70
     8
 71
     3
 72
    15
 73
    11
 74
     0
 42
0.000000001
 43
0.00000001
 40
0.0
 40
0.0
 40
0.0
 40
0.0
 40
0.1181237254843523
 40
0.2419504786112246
 40
0.3698940602338122
 40
0.5000000000000001
 40
0.6301059397661899
 40
0.7580495213887765
 40
0.8818762745156478
 40
1.0
 40
1.0
 40
1.0
 40
1.0
 10
689.4755545072032
 20
325.0384970859979
 30
0.0
 10
689.4534021459937
 20
325.2116173466819
 30
0.0
 10
689.4080279049172
 20
325.566216135012
 30
0.0
 10
689.3406299176215
 20
326.8403501230529
 30
0.0
 10
689.275332714071
 20
328.691139553989
 30
0.0
 10
689.2156385285796
 20
331.1261485866777
 30
0.0
 10
689.1646162227162
 20
334.0214874865949
 30
0.0
 10
689.1248632845853
 20
337.2282445753845
 30
0.0
 10
689.0964011411916
 20
340.5692121245023
 30
0.0
 10
689.0871813039661
 20
342.8429971374357
 30
0.0
 10
689.082680045991
 20
343.9530918899646
 30
0.0
  0
SPLINE
  5
D2
330
1F
100
AcDbEntity
  8
0
  6
Continuous
 62
     7
370
    15
100
AcDbSpline
210
0.0
220
0.0
230
1.0
 70
     8
 71
     3
 72
    11
 73
     7
 74
     0
 42
0.000000001
 43
0.00000001
 40
0.0
 40
0.0
 40
0.0
 40
0.0
 40
0.2462996572078373
 40
0.4937921614795987
 40
0.7468662632811429
 40
1.0
 40
1.0
 40
1.0
 40
1.0
 10
813.052040706906
 20
639.0510134591574
 30
0.0
 10
813.010995977798
 20
639.4637426364716
 30
0.0
 10
812.9287077369883
 20
640.2911998683736
 30
0.0
 10
812.1832103203166
 20
641.3304149513541
 30
0.0
 10
811.1421757178703
 20
642.0973244595291
 30
0.0
 10
810.2930445628157
 20
642.1855464143446
 30
0.0
 10
809.8684289684154
 20
642.2296625883421
 30
0.0
  0
SPLINE
  5
D3
330
1F
100
AcDbEntity
  8
0
  6
Continuous
 62
     7
370
    15
100
AcDbSpline
210
0.0
220
0.0
230
1.0
 70
     8
 71
     3
 72
    15
 73
    11
 74
     0
 42
0.000000001
 43
0.00000001
 40
0.0
 40
0.0
 40
0.0
 40
0.0
 40
0.1178530449232326
 40
0.2416255560459398
 40
0.3696847140921817
 40
0.4999999999999993
 40
0.6303152859078179
 40
0.7583744439540608
 40
0.8821469550767662
 40
1.0
 40
1.0
 40
1.0
 40
1.0
 10
813.052040706906
 20
639.0510134591574
 30
0.0
 10
814.18363490968
 20
639.041308639966
 30
0.0
 10
816.5036604859534
 20
639.0214115525806
 30
0.0
 10
819.9326326957156
 20
638.954462765154
 30
0.0
 10
823.237076681873
 20
638.8586954009052
 30
0.0
 10
826.2295096562614
 20
638.7340028795281
 30
0.0
 10
828.7491591719071
 20
638.586962993673
 30
0.0
 10
830.6631697038533
 20
638.4254731033722
 30
0.0
 10
831.9776898377452
 20
638.2585791289098
 30
0.0
 10
832.3410157713504
 20
638.1461934417633
 30
0.0
 10
832.5182282660701
 20
638.0913772391533
 30
0.0
  0
SPLINE
  5
D4
330
1F
100
AcDbEntity
  8
0
  6
Continuous
 62
     7
370
    15
100
AcDbSpline
210
0.0
220
0.0
230
1.0
 70
     8
 71
     3
 72
    11
 73
     7
 74
     0
 42
0.000000001
 43
0.00000001
 40
0.0
 40
0.0
 40
0.0
 40
0.0
 40
0.2499733454975458
 40
0.4999999999999986
 40
0.7500266545024584
 40
1.0
 40
1.0
 40
1.0
 40
1.0
 10
689.082680045991
 20
343.9530918899646
 30
0.0
 10
699.1463229540739
 20
343.9510799195145
 30
0.0
 10
719.2757549302158
 20
343.9470555495441
 30
0.0
 10
749.4755545072034
 20
343.9418434702186
 30
0.0
 10
779.6753540841919
 20
343.9470555511026
 30
0.0
 10
799.804786060333
 20
343.951079920034
 30
0.0
 10
809.8684289684154
 20
343.9530918899646
 30
0.0
  0
SPLINE
  5
D5
330
1F
100
AcDbEntity
  8
0
  6
Continuous
 62
     7
370
    15
100
AcDbSpline
210
0.0
220
0.0
230
1.0
 70
     8
 71
     3
 72
    14
 73
    10
 74
     0
 42
0.000000001
 43
0.00000001
 40
0.0
 40
0.0
 40
0.0
 40
0.0
 40
0.1469405044134173
 40
0.2877593079416543
 40
0.4320989024782128
 40
0.5749993587970955
 40
0.7162284880981612
 40
0.8604613436120594
 40
1.0
 40
1.0
 40
1.0
 40
1.0
 10
813.052040706906
 20
347.1317410191493
 30
0.0
 10
813.0644351263411
 20
352.7615151123116
 30
0.0
 10
813.0887076002459
 20
363.7865208000442
 30
0.0
 10
813.4141896454103
 20
380.340279387529
 30
0.0
 10
813.8712051021572
 20
396.7368652668575
 30
0.0
 10
814.4276671363516
 20
413.1480297834955
 30
0.0
 10
815.0080798725969
 20
429.5565804801186
 30
0.0
 10
815.5752699739118
 20
445.8395262018539
 30
0.0
 10
815.8690176182504
 20
456.7170534522151
 30
0.0
 10
816.0134618273729
 20
462.0658480763339
 30
0.0
  0
SPLINE
  5
D6
330
1F
100
AcDbEntity
  8
0
  6
Continuous
 62
     7
370
    15
100
AcDbSpline
210
0.0
220
0.0
230
1.0
 70
     8
 71
     3
 72
    15
 73
    11
 74
     0
 42
0.000000001
 43
0.00000001
 40
0.0
 40
0.0
 40
0.0
 40
0.0
 40
0.1183537387289042
 40
0.2422288037505456
 40
0.3700784446271711
 40
0.5000113788152042
 40
0.6299427159143183
 40
0.7577877187057185
 40
0.8816555289136054
 40
1.0
 40
1.0
 40
1.0
 40
1.0
 10
816.0133185271902
 20
462.0575472828322
 30
0.0
 10
816.9139847559113
 20
462.0621149531519
 30
0.0
 10
818.7573342394571
 20
462.0714633804121
 30
0.0
 10
821.4674488426728
 20
462.0985899153573
 30
0.0
 10
824.0723526289831
 20
462.1357723654993
 30
0.0
 10
826.4334517651262
 20
462.182944819439
 30
0.0
 10
828.4338342392888
 20
462.2377784919688
 30
0.0
 10
829.9747950860284
 20
462.2975582048264
 30
0.0
 10
831.0600758200915
 20
462.3591952609734
 30
0.0
 10
831.3904018120338
 20
462.4006812127433
 30
0.0
 10
831.5517984786009
 20
462.4209511717789
 30
0.0
  0
SPLINE
  5
D7
330
1F
100
AcDbEntity
  8
0
  6
Continuous
 62
     7
370
    15
100
AcDbSpline
210
0.0
220
0.0
230
1.0
 70
     8
 71
     3
 72
    13
 73
     9
 74
     0
 42
0.000000001
 43
0.00000001
 40
0.0
 40
0.0
 40
0.0
 40
0.0
 40
0.1636095473328735
 40
0.3294089263125505
 40
0.5004202284939447
 40
0.662681155964085
 40
0.8296567444824716
 40
1.0
 40
1.0
 40
1.0
 40
1.0
 10
816.015063745455
 20
524.1134489364771
 30
0.0
 10
815.8426744100333
 20
530.3849742837881
 30
0.0
 10
815.4955883944879
 20
543.0119661964086
 30
0.0
 10
814.8144561120355
 20
562.1835334601172
 30
0.0
 10
814.1330153434019
 20
581.2998186885665
 30
0.0
 10
813.5479916304452
 20
600.4613377025667
 30
0.0
 10
813.1094103067562
 20
619.6001178676056
 30
0.0
 10
813.0712907640105
 20
632.5243712680012
 30
0.0
 10
813.052040706906
 20
639.0510134591574
 30
0.0
  0
SPLINE
  5
D8
330
1F
100
AcDbEntity
  8
0
  6
Continuous
 62
     7
370
    15
100
AcDbSpline
210
0.0
220
0.0
230
1.0
 70
     8
 71
     3
 72
    15
 73
    11
 74
     0
 42
0.000000001
 43
0.00000001
 40
0.0
 40
0.0
 40
0.0
 40
0.0
 40
0.1183512563495746
 40
0.2422213973432186
 40
0.3700649875033538
 40
0.4999926147226021
 40
0.6299214051966572
 40
0.7577682651500266
 40
0.88164319727723
 40
0.9999999999999999
 40
0.9999999999999999
 40
0.9999999999999999
 40
0.9999999999999999
 10
816.014904204371
 20
524.1133745551808
 30
0.0
 10
816.9154601640718
 20
524.1037774892797
 30
0.0
 10
818.7585662676538
 20
524.0841358328688
 30
0.0
 10
821.4683747418901
 20
524.0463421668086
 30
0.0
 10
824.0730007577303
 20
524.0026140301367
 30
0.0
 10
826.4338796124372
 20
523.9540034565655
 30
0.0
 10
828.4341084874519
 20
523.9029124370962
 30
0.0
 10
829.9749844085402
 20
523.8518681077218
 30
0.0
 10
831.0602312036604
 20
523.80290109194
 30
0.0
 10
831.3905576630596
 20
523.7728549220216
 30
0.0
 10
831.5519584126907
 20
523.7581740685495
 30
0.0
  0
SPLINE
  5
D9
330
1F
100
AcDbEntity
  8
0
  6
Continuous
 62
     7
370
    15
100
AcDbSpline
210
0.0
220
0.0
230
1.0
 70
     8
 71
     3
 72
    14
 73
    10
 74
     0
 42
0.000000001
 43
0.00000001
 40
0.0
 40
0.0
 40
0.0
 40
0.0
 40
0.1469533315911158
 40
0.2877840951483221
 40
0.4321332147989982
 40
0.575037485967194
 40
0.7162655847335957
 40
0.8604802453744919
 40
1.0
 40
1.0
 40
1.0
 40
1.0
 10
685.8990683075004
 20
639.0510134591574
 30
0.0
 10
685.8866433935866
 20
633.4205765828516
 30
0.0
 10
685.8623112292914
 20
622.3942856904074
 30
0.0
 10
685.536438529725
 20
605.8387145572643
 30
0.0
 10
685.0789630887147
 20
589.4406719097102
 30
0.0
 10
684.5220572516686
 20
573.0285494745275
 30
0.0
 10
683.9413351755467
 20
556.6200998291595
 30
0.0
 10
683.3739536561975
 20
540.3381251739194
 30
0.0
 10
683.0803955798922
 20
529.4616841542716
 30
0.0
 10
682.9360452699872
 20
524.1134489716086
 30
0.0
  0
SPLINE
  5
DA
330
1F
100
AcDbEntity
  8
0
  6
Continuous
 62
     7
370
    15
100
AcDbSpline
210
0.0
220
0.0
230
1.0
 70
     8
 71
     3
 72
    15
 73
    11
 74
     0
 42
0.000000001
 43
0.00000001
 40
0.0
 40
0.0
 40
0.0
 40
0.0
 40
0.1183568027225585
 40
0.2422317348498981
 40
0.3700785948036284
 40
0.5000073852781038
 40
0.6299350124976667
 40
0.7577786026578501
 40
0.8816487436511751
 40
1.0
 40
1.0
 40
1.0
 40
1.0
 10
667.3991506014083
 20
523.7581741033212
 30
0.0
 10
667.5605513510188
 20
523.7728549568031
 30
0.0
 10
667.8908778103764
 20
523.8029011267421
 30
0.0
 10
668.9761246055252
 20
523.851868142563
 30
0.0
 10
670.5170005267157
 20
523.9029124719826
 30
0.0
 10
672.5172294019102
 20
523.9540034915018
 30
0.0
 10
674.8781082568593
 20
524.0026140651253
 30
0.0
 10
677.4827342729784
 20
524.0463422018483
 30
0.0
 10
680.1925427475052
 20
524.0841358679572
 30
0.0
 10
682.0356488512782
 20
524.1037775243971
 30
0.0
 10
682.9362048110706
 20
524.1133745903124
 30
0.0
  0
SPLINE
  5
DB
330
1F
100
AcDbEntity
  8
0
  6
Continuous
 62
     7
370
    15
100
AcDbSpline
210
0.0
220
0.0
230
1.0
 70
     8
 71
     3
 72
    15
 73
    11
 74
     0
 42
0.000000001
 43
0.00000001
 40
0.0
 40
0.0
 40
0.0
 40
0.0
 40
0.1183478934187244
 40
0.2422185293291486
 40
0.370065522013362
 40
0.4999977834249272
 40
0.6299303939659145
 40
0.7577783680219289
 40
0.881650441916476
 40
1.0
 40
1.0
 40
1.0
 40
1.0
 10
667.3993736044193
 20
462.4309669616881
 30
0.0
 10
667.5607771331141
 20
462.4106329477825
 30
0.0
 10
667.8911161380571
 20
462.3690160266756
 30
0.0
 10
668.9764508801621
 20
462.3071612433948
 30
0.0
 10
670.5174705670584
 20
462.2471517740918
 30
0.0
 10
672.517898215429
 20
462.1920849294804
 30
0.0
 10
674.8790086507033
 20
462.1446872752173
 30
0.0
 10
677.4838781309312
 20
462.1072984084561
 30
0.0
 10
680.1939119906707
 20
462.0799895288052
 30
0.0
 10
682.0371894019474
 20
462.0705421601266
 30
0.0
 10
682.9378152678888
 20
462.0659261731108
 30
0.0
  0
SPLINE
  5
DC
330
1F
100
AcDbEntity
  8
0
  6
Continuous
 62
     7
370
    15
100
AcDbSpline
210
0.0
220
0.0
230
1.0
 70
     8
 71
     3
 72
    13
 73
     9
 74
     0
 42
0.000000001
 43
0.00000001
 40
0.0
 40
0.0
 40
0.0
 40
0.0
 40
0.1636321502135994
 40
0.3294462093576686
 40
0.500459336102985
 40
0.6627091039817828
 40
0.8296717030128998
 40
1.0
 40
1.0
 40
1.0
 40
1.0
 10
682.9376471936527
 20
462.0658478084713
 30
0.0
 10
683.1101373968867
 20
455.7936494839367
 30
0.0
 10
683.4574178276126
 20
443.1656178919781
 30
0.0
 10
684.1382506577436
 20
423.9931265706407
 30
0.0
 10
684.8192698653277
 20
404.8772047953991
 30
0.0
 10
685.4037427105744
 20
385.7171089807897
 30
0.0
 10
685.8418222610535
 20
366.5804007496941
 30
0.0
 10
685.8798597713873
 20
353.6576114673744
 30
0.0
 10
685.8990683075003
 20
347.1317410191492
 30
0.0
  0
SPLINE
  5
DD
330
1F
100
AcDbEntity
  8
0
  6
Continuous
 62
     7
370
    15
100
AcDbSpline
210
0.0
220
0.0
230
1.0
 70
     8
 71
     3
 72
    15
 73
    11
 74
     0
 42
0.000000001
 43
0.00000001
 40
0.0
 40
0.0
 40
0.0
 40
0.0
 40
0.1249999999999993
 40
0.2499999999999996
 40
0.3749999999999998
 40
0.4999999999999996
 40
0.6249999999999999
 40
0.75
 40
0.8750000000000004
 40
1.0
 40
1.0
 40
1.0
 40
1.0
 10
816.0132938622405
 20
462.0659263957059
 30
0.0
 10
817.0650510672294
 20
464.5206046875489
 30
0.0
 10
819.1685654772072
 20
469.4299612712348
 30
0.0
 10
821.2835831193202
 20
477.1739756597714
 30
0.0
 10
822.602241756888
 20
485.0808276501922
 30
0.0
 10
823.0354970695711
 20
493.0894682336569
 30
0.0
 10
822.6026574331324
 20
501.098131293757
 30
0.0
 10
821.2844091898287
 20
509.0050517163919
 30
0.0
 10
819.1697934912268
 20
516.7491758711003
 30
0.0
 10
817.0665338963722
 20
521.6586416277195
 30
0.0
 10
816.0149040989448
 20
524.113374506029
 30
0.0
  0
SPLINE
  5
DE
330
1F
100
AcDbEntity
  8
0
  6
Continuous
 62
     7
370
    15
100
AcDbSpline
210
0.0
220
0.0
230
1.0
 70
     8
 71
     3
 72
    15
 73
    11
 74
     0
 42
0.000000001
 43
0.00000001
 40
0.0
 40
0.0
 40
0.0
 40
0.0
 40
0.1250000000000001
 40
0.2499999999999997
 40
0.3750000000000007
 40
0.4999999999999994
 40
0.6250000000000003
 40
0.75
 40
0.8749999999999997
 40
1.0
 40
1.0
 40
1.0
 40
1.0
 10
682.9362049291011
 20
524.1133745352843
 30
0.0
 10
681.8845751263647
 20
521.658641646636
 30
0.0
 10
679.7813155208918
 20
516.7491758693392
 30
0.0
 10
677.6666998153615
 20
509.00505168025
 30
0.0
 10
676.3484515721515
 20
501.0981312222773
 30
0.0
 10
675.9156119435831
 20
493.089468126804
 30
0.0
 10
676.348867271665
 20
485.0808275092246
 30
0.0
 10
677.6675259321108
 20
477.1739754872967
 30
0.0
 10
679.7825436036526
 20
469.4299610705243
 30
0.0
 10
681.8860580385123
 20
464.5206044722725
 30
0.0
 10
682.9378152559418
 20
462.0659261731466
 30
0.0
  0
ARC
  5
DF
330
1F
100
AcDbEntity
  8
0
  6
Continuous
 62
     7
370
    15
100
AcDbCircle
 10
749.4755545072032
 20
493.0913772391533
 30
0.0
 40
73.4155934289034
100
AcDbArc
 50
24.9958898077859
 51
155.0041101670229
  0
ARC
  5
E0
330
1F
100
AcDbEntity
  8
0
  6
Continuous
 62
     7
370
    15
100
AcDbCircle
 10
749.4755545072032
 20
493.0913772391533
 30
0.0
 40
73.41559342890342
100
AcDbArc
 50
204.9988638450936
 51
335.0011363465544
  0
CIRCLE
  5
E1
330
1F
100
AcDbEntity
  8
0
  6
Continuous
 62
     7
370
    15
100
AcDbCircle
 10
749.4755545072032
 20
493.0913772391533
 30
0.0
 40
58.61177143234625
  0
CIRCLE
  5
E2
330
1F
100
AcDbEntity
  8
0
  6
Continuous
 62
     7
370
    15
100
AcDbCircle
 10
749.4755545072032
 20
493.0913772391533
 30
0.0
 40
57.5
  0
CIRCLE
  5
E3
330
1F
100
AcDbEntity
  8
0
  6
Continuous
 62
     7
370
    15
100
AcDbCircle
 10
749.4755545072032
 20
493.0913772391533
 30
0.0
 40
56.58715574274765
  0
CIRCLE
  5
E4
330
1F
100
AcDbEntity
  8
0
  6
Continuous
 62
     7
370
    15
100
AcDbCircle
 10
749.4755545072032
 20
493.0913772391533
 30
0.0
 40
45.0
  0
LINE
  5
E5
330
1F
100
AcDbEntity
  8
0
  6
Continuous
 62
     7
370
    15
100
AcDbLine
 10
642.1751394307836
 20
314.8913772391534
 30
0.0
 11
642.1751394307836
 21
671.2913772391535
 31
0.0
  0
LINE
  5
E6
330
1F
100
AcDbEntity
  8
0
  6
Continuous
 62
     7
370
    15
100
AcDbLine
 10
642.1751394307836
 20
671.2913772391535
 30
0.0
 11
644.0545246723553
 21
671.2913772391535
 31
0.0
  0
LINE
  5
E7
330
1F
100
AcDbEntity
  8
0
  6
Continuous
 62
     7
370
    15
100
AcDbLine
 10
644.0545246723553
 20
671.2913772391535
 30
0.0
 11
644.0545246723553
 21
314.8913772391534
 31
0.0
  0
LINE
  5
E8
330
1F
100
AcDbEntity
  8
0
  6
Continuous
 62
     7
370
    15
100
AcDbLine
 10
642.1751394307836
 20
314.8913772391534
 30
0.0
 11
644.0545246723553
 21
314.8913772391534
 31
0.0
  0
LINE
  5
E9
330
1F
100
AcDbEntity
  8
0
  6
Continuous
 62
     7
370
    15
100
AcDbLine
 10
649.9755545072031
 20
277.2726824919059
 30
0.0
 11
1383.975554507203
 21
277.2726824919059
 31
0.0
  0
LINE
  5
EA
330
1F
100
AcDbEntity
  8
0
  6
Continuous
 62
     7
370
    15
100
AcDbLine
 10
1383.975554507203
 20
277.2726824919059
 30
0.0
 11
1383.975554507203
 21
276.2913772391534
 31
0.0
  0
LINE
  5
EB
330
1F
100
AcDbEntity
  8
0
  6
Continuous
 62
     7
370
    15
100
AcDbLine
 10
1383.975554507203
 20
276.2913772391534
 30
0.0
 11
649.9755545072031
 21
276.2913772391533
 31
0.0
  0
LINE
  5
EC
330
1F
100
AcDbEntity
  8
0
  6
Continuous
 62
     7
370
    15
100
AcDbLine
 10
649.9755545072031
 20
276.2913772391533
 30
0.0
 11
649.9755545072031
 21
277.2726824919059
 31
0.0
  0
ARC
  5
ED
330
1F
100
AcDbEntity
  8
0
  6
Continuous
 62
     7
370
    15
100
AcDbCircle
 10
1383.975554507203
 20
301.2913772391534
 30
0.0
 40
24.01869474724748
100
AcDbArc
 50
270.0000000000008
 51
0.0
  0
LINE
  5
EE
330
1F
100
AcDbEntity
  8
0
  6
Continuous
 62
     7
370
    15
100
AcDbLine
 10
1407.99424925445
 20
301.2913772391534
 30
0.0
 11
1408.975554507203
 21
301.2913772391534
 31
0.0
  0
ARC
  5
EF
330
1F
100
AcDbEntity
  8
0
  6
Continuous
 62
     7
370
    15
100
AcDbCircle
 10
1383.975554507203
 20
301.2913772391534
 30
0.0
 40
25.00000000000023
100
AcDbArc
 50
270.0000000000008
 51
0.0
  0
ARC
  5
F0
330
1F
100
AcDbEntity
  8
0
  6
Continuous
 62
     7
370
    15
100
AcDbCircle
 10
649.9755545072031
 20
301.2913772391534
 30
0.0
 40
25.00000000000011
100
AcDbArc
 50
180.0
 51
270.0000000000008
  0
LINE
  5
F1
330
1F
100
AcDbEntity
  8
0
  6
Continuous
 62
     7
370
    15
100
AcDbLine
 10
624.975554507203
 20
301.2913772391534
 30
0.0
 11
625.9568597599555
 21
301.2913772391534
 31
0.0
  0
ARC
  5
F2
330
1F
100
AcDbEntity
  8
0
  6
Continuous
 62
     7
370
    15
100
AcDbCircle
 10
649.9755545072031
 20
301.2913772391534
 30
0.0
 40
24.01869474724765
100
AcDbArc
 50
180.0
 51
270.0000000000008
  0
LINE
  5
F3
330
1F
100
AcDbEntity
  8
0
  6
Continuous
 62
     7
370
    15
100
AcDbLine
 10
1407.99424925445
 20
301.2913772391534
 30
0.0
 11
1407.99424925445
 21
751.2913772391533
 31
0.0
  0
LINE
  5
F4
330
1F
100
AcDbEntity
  8
0
  6
Continuous
 62
     7
370
    15
100
AcDbLine
 10
1407.99424925445
 20
751.2913772391533
 30
0.0
 11
1408.975554507203
 21
751.2913772391533
 31
0.0
  0
LINE
  5
F5
330
1F
100
AcDbEntity
  8
0
  6
Continuous
 62
     7
370
    15
100
AcDbLine
 10
1408.975554507203
 20
751.2913772391533
 30
0.0
 11
1408.975554507203
 21
301.2913772391534
 31
0.0
  0
LINE
  5
F6
330
1F
100
AcDbEntity
  8
0
  6
Continuous
 62
     7
370
    15
100
AcDbLine
 10
624.975554507203
 20
301.2913772391534
 30
0.0
 11
624.975554507203
 21
751.2913772391533
 31
0.0
  0
LINE
  5
F7
330
1F
100
AcDbEntity
  8
0
  6
Continuous
 62
     7
370
    15
100
AcDbLine
 10
624.975554507203
 20
751.2913772391533
 30
0.0
 11
625.9568597599555
 21
751.2913772391533
 31
0.0
  0
LINE
  5
F8
330
1F
100
AcDbEntity
  8
0
  6
Continuous
 62
     7
370
    15
100
AcDbLine
 10
625.9568597599555
 20
751.2913772391533
 30
0.0
 11
625.9568597599555
 21
301.2913772391534
 31
0.0
  0
LINE
  5
F9
330
1F
100
AcDbEntity
  8
0
  6
Continuous
 62
     7
370
    15
100
AcDbLine
 10
663.5755545072032
 20
295.3703474043057
 30
0.0
 11
1370.375554507203
 21
295.3703474043057
 31
0.0
  0
LINE
  5
FA
330
1F
100
AcDbEntity
  8
0
  6
Continuous
 62
     7
370
    15
100
AcDbLine
 10
1370.375554507203
 20
295.3703474043057
 30
0.0
 11
1370.375554507203
 21
293.4909621627339
 31
0.0
  0
LINE
  5
FB
330
1F
100
AcDbEntity
  8
0
  6
Continuous
 62
     7
370
    15
100
AcDbLine
 10
1370.375554507203
 20
293.4909621627339
 30
0.0
 11
663.5755545072032
 21
293.4909621627339
 31
0.0
  0
LINE
  5
FC
330
1F
100
AcDbEntity
  8
0
  6
Continuous
 62
     7
370
    15
100
AcDbLine
 10
663.5755545072032
 20
293.4909621627339
 30
0.0
 11
663.5755545072032
 21
295.3703474043057
 31
0.0
  0
ARC
  5
FD
330
1F
100
AcDbEntity
  8
0
  6
Continuous
 62
     7
370
    15
100
AcDbCircle
 10
1370.375554507203
 20
314.8913772391533
 30
0.0
 40
19.5210298348477
100
AcDbArc
 50
270.0000000000008
 51
0.0
  0
LINE
  5
FE
330
1F
100
AcDbEntity
  8
0
  6
Continuous
 62
     7
370
    15
100
AcDbLine
 10
1389.896584342051
 20
314.8913772391533
 30
0.0
 11
1391.775969583623
 21
314.8913772391533
 31
0.0
  0
ARC
  5
FF
330
1F
100
AcDbEntity
  8
0
  6
Continuous
 62
     7
370
    15
100
AcDbCircle
 10
1370.375554507203
 20
314.8913772391533
 30
0.0
 40
21.40041507641968
100
AcDbArc
 50
270.0000000000008
 51
0.0
  0
ARC
  5
100
330
1F
100
AcDbEntity
  8
0
  6
Continuous
 62
     7
370
    15
100
AcDbCircle
 10
663.5755545072032
 20
314.8913772391533
 30
0.0
 40
21.40041507641956
100
AcDbArc
 50
179.9999999999998
 51
270.0000000000008
  0
ARC
  5
101
330
1F
100
AcDbEntity
  8
0
  6
Continuous
 62
     7
370
    15
100
AcDbCircle
 10
663.5755545072032
 20
314.8913772391533
 30
0.0
 40
19.52102983484781
100
AcDbArc
 50
179.9999999999998
 51
270.0000000000008
  0
LINE
  5
102
330
1F
100
AcDbEntity
  8
0
  6
Continuous
 62
     7
370
    15
100
AcDbLine
 10
1389.896584342051
 20
314.8913772391533
 30
0.0
 11
1389.896584342051
 21
671.2913772391535
 31
0.0
  0
LINE
  5
103
330
1F
100
AcDbEntity
  8
0
  6
Continuous
 62
     7
370
    15
100
AcDbLine
 10
1389.896584342051
 20
671.2913772391535
 30
0.0
 11
1391.775969583623
 21
671.2913772391535
 31
0.0
  0
LINE
  5
104
330
1F
100
AcDbEntity
  8
0
  6
Continuous
 62
     7
370
    15
100
AcDbLine
 10
1391.775969583623
 20
671.2913772391535
 30
0.0
 11
1391.775969583623
 21
314.8913772391533
 31
0.0
  0
LINE
  5
105
330
1F
100
AcDbEntity
  8
0
  6
Continuous
 62
     7
370
    15
100
AcDbLine
 10
1370.375554507203
 20
690.812407074001
 30
0.0
 11
663.5755545072029
 21
690.8124070740009
 31
0.0
  0
LINE
  5
106
330
1F
100
AcDbEntity
  8
0
  6
Continuous
 62
     7
370
    15
100
AcDbLine
 10
663.5755545072029
 20
692.6917923155729
 30
0.0
 11
663.5755545072029
 21
690.8124070740009
 31
0.0
  0
LINE
  5
107
330
1F
100
AcDbEntity
  8
0
  6
Continuous
 62
     7
370
    15
100
AcDbLine
 10
663.5755545072029
 20
692.6917923155729
 30
0.0
 11
1370.375554507203
 21
692.6917923155729
 31
0.0
  0
LINE
  5
108
330
1F
100
AcDbEntity
  8
0
  6
Continuous
 62
     7
370
    15
100
AcDbLine
 10
1370.375554507203
 20
690.812407074001
 30
0.0
 11
1370.375554507203
 21
692.6917923155729
 31
0.0
  0
ARC
  5
109
330
1F
100
AcDbEntity
  8
0
  6
Continuous
 62
     7
370
    15
100
AcDbCircle
 10
1370.375554507203
 20
671.2913772391535
 30
0.0
 40
19.5210298348477
100
AcDbArc
 50
0.0
 51
90.0
  0
ARC
  5
10A
330
1F
100
AcDbEntity
  8
0
  6
Continuous
 62
     7
370
    15
100
AcDbCircle
 10
1370.375554507203
 20
671.2913772391535
 30
0.0
 40
21.40041507641968
100
AcDbArc
 50
0.0
 51
90.0
  0
ARC
  5
10B
330
1F
100
AcDbEntity
  8
0
  6
Continuous
 62
     7
370
    15
100
AcDbCircle
 10
663.5755545072029
 20
671.2913772391535
 30
0.0
 40
21.40041507641945
100
AcDbArc
 50
90.0
 51
180.0
  0
ARC
  5
10C
330
1F
100
AcDbEntity
  8
0
  6
Continuous
 62
     7
370
    15
100
AcDbCircle
 10
663.5755545072029
 20
671.2913772391535
 30
0.0
 40
19.52102983484758
100
AcDbArc
 50
90.0
 51
180.0
  0
ARC
  5
10D
330
1F
100
AcDbEntity
  8
0
  6
Continuous
 62
     7
370
    15
100
AcDbCircle
 10
1383.975554507203
 20
751.2913772391533
 30
0.0
 40
24.01869474724754
100
AcDbArc
 50
0.0
 51
90.0
  0
LINE
  5
10E
330
1F
100
AcDbEntity
  8
0
  6
Continuous
 62
     7
370
    15
100
AcDbLine
 10
1383.975554507203
 20
775.3100719864009
 30
0.0
 11
1383.975554507203
 21
776.2913772391535
 31
0.0
  0
ARC
  5
10F
330
1F
100
AcDbEntity
  8
0
  6
Continuous
 62
     7
370
    15
100
AcDbCircle
 10
1383.975554507203
 20
751.2913772391533
 30
0.0
 40
25.00000000000011
100
AcDbArc
 50
0.0
 51
90.0
  0
ARC
  5
110
330
1F
100
AcDbEntity
  8
0
  6
Continuous
 62
     7
370
    15
100
AcDbCircle
 10
649.9755545072029
 20
751.2913772391533
 30
0.0
 40
24.01869474724742
100
AcDbArc
 50
90.0
 51
180.0
  0
LINE
  5
111
330
1F
100
AcDbEntity
  8
0
  6
Continuous
 62
     7
370
    15
100
AcDbLine
 10
1383.975554507203
 20
775.3100719864009
 30
0.0
 11
649.9755545072029
 21
775.3100719864008
 31
0.0
  0
CIRCLE
  5
113
330
1F
100
AcDbEntity
  8
0
  6
Continuous
 62
     7
370
    15
100
AcDbCircle
 10
851.9755545072034
 20
726.2913772391532
 30
0.0
 40
17.50000000000011
  0
LINE
  5
114
330
1F
100
AcDbEntity
  8
0
  6
Continuous
 62
     7
370
    15
100
AcDbLine
 10
649.9755545072029
 20
776.2913772391533
 30
0.0
 11
649.9755545072029
 21
775.3100719864008
 31
0.0
  0
LINE
  5
115
330
1F
100
AcDbEntity
  8
0
  6
Continuous
 62
     7
370
    15
100
AcDbLine
 10
649.9755545072029
 20
776.2913772391533
 30
0.0
 11
1383.975554507203
 21
776.2913772391535
 31
0.0
  0
ARC
  5
116
330
1F
100
AcDbEntity
  8
0
  6
Continuous
 62
     7
370
    15
100
AcDbCircle
 10
649.9755545072029
 20
751.2913772391533
 30
0.0
 40
25.0
100
AcDbArc
 50
90.0
 51
180.0
  0
ARC
  5
117
330
1F
100
AcDbEntity
  8
0
  6
Continuous
 62
     7
370
    15
100
AcDbCircle
 10
1370.375554507203
 20
314.8913772391533
 30
0.0
 40
19.38705946235382
100
AcDbArc
 50
270.0000000000008
 51
0.0
  0
LINE
  5
118
330
1F
100
AcDbEntity
  8
0
  6
Continuous
 62
     7
370
    15
100
AcDbLine
 10
1389.762613969557
 20
314.8913772391533
 30
0.0
 11
1389.896584342051
 21
314.8913772391533
 31
0.0
  0
LINE
  5
119
330
1F
100
AcDbEntity
  8
0
  6
Continuous
 62
     7
370
    15
100
AcDbLine
 10
1370.375554507203
 20
295.5043177767996
 30
0.0
 11
1370.375554507203
 21
295.3703474043057
 31
0.0
  0
LINE
  5
11A
330
1F
100
AcDbEntity
  8
0
  6
Continuous
 62
     7
370
    15
100
AcDbLine
 10
663.5755545072029
 20
690.6784367015072
 30
0.0
 11
1370.375554507203
 21
690.6784367015073
 31
0.0
  0
LINE
  5
11B
330
1F
100
AcDbEntity
  8
0
  6
Continuous
 62
     7
370
    15
100
AcDbLine
 10
663.5755545072029
 20
690.6784367015072
 30
0.0
 11
663.5755545072029
 21
690.8124070740009
 31
0.0
  0
LINE
  5
11C
330
1F
100
AcDbEntity
  8
0
  6
Continuous
 62
     7
370
    15
100
AcDbLine
 10
1370.375554507203
 20
690.6784367015073
 30
0.0
 11
1370.375554507203
 21
690.812407074001
 31
0.0
  0
LINE
  5
11D
330
1F
100
AcDbEntity
  8
0
  6
Continuous
 62
     7
370
    15
100
AcDbLine
 10
644.1884950448492
 20
314.8913772391534
 30
0.0
 11
644.1884950448492
 21
671.2913772391535
 31
0.0
  0
LINE
  5
11E
330
1F
100
AcDbEntity
  8
0
  6
Continuous
 62
     7
370
    15
100
AcDbLine
 10
644.1884950448492
 20
314.8913772391534
 30
0.0
 11
644.0545246723553
 21
314.8913772391534
 31
0.0
  0
LINE
  5
11F
330
1F
100
AcDbEntity
  8
0
  6
Continuous
 62
     7
370
    15
100
AcDbLine
 10
644.1884950448492
 20
671.2913772391535
 30
0.0
 11
644.0545246723553
 21
671.2913772391535
 31
0.0
  0
ARC
  5
120
330
1F
100
AcDbEntity
  8
0
  6
Continuous
 62
     7
370
    15
100
AcDbCircle
 10
663.5755545072029
 20
671.2913772391535
 30
0.0
 40
19.3870594623537
100
AcDbArc
 50
90.0
 51
180.0
  0
ARC
  5
121
330
1F
100
AcDbEntity
  8
0
  6
Continuous
 62
     7
370
    15
100
AcDbCircle
 10
663.5755545072032
 20
314.8913772391533
 30
0.0
 40
19.38705946235393
100
AcDbArc
 50
179.9999999999998
 51
270.0000000000008
  0
LINE
  5
122
330
1F
100
AcDbEntity
  8
0
  6
Continuous
 62
     7
370
    15
100
AcDbLine
 10
663.5755545072032
 20
295.5043177767995
 30
0.0
 11
663.5755545072032
 21
295.3703474043057
 31
0.0
  0
ARC
  5
123
330
1F
100
AcDbEntity
  8
0
  6
Continuous
 62
     7
370
    15
100
AcDbCircle
 10
1370.375554507203
 20
671.2913772391535
 30
0.0
 40
19.38705946235382
100
AcDbArc
 50
0.0
 51
90.0
  0
LINE
  5
124
330
1F
100
AcDbEntity
  8
0
  6
Continuous
 62
     7
370
    15
100
AcDbLine
 10
1389.762613969557
 20
671.2913772391535
 30
0.0
 11
1389.896584342051
 21
671.2913772391535
 31
0.0
  0
LINE
  5
125
330
1F
100
AcDbEntity
  8
0
  6
Continuous
 62
     7
370
    15
100
AcDbLine
 10
1389.762613969557
 20
671.2913772391535
 30
0.0
 11
1389.762613969557
 21
314.8913772391533
 31
0.0
  0
LINE
  5
126
330
1F
100
AcDbEntity
  8
0
  6
Continuous
 62
     7
370
    15
100
AcDbLine
 10
1370.375554507203
 20
295.5043177767996
 30
0.0
 11
663.5755545072032
 21
295.5043177767995
 31
0.0
  0
LINE
  5
127
330
1F
100
AcDbEntity
  8
0
  6
Continuous
 62
     7
370
    15
100
AcDbLine
 10
1370.375554507203
 20
688.7990514599354
 30
0.0
 11
663.5755545072029
 21
688.7990514599354
 31
0.0
  0
LINE
  5
128
330
1F
100
AcDbEntity
  8
0
  6
Continuous
 62
     7
370
    15
100
AcDbLine
 10
663.5755545072029
 20
690.6784367015072
 30
0.0
 11
663.5755545072029
 21
688.7990514599354
 31
0.0
  0
LINE
  5
129
330
1F
100
AcDbEntity
  8
0
  6
Continuous
 62
     7
370
    15
100
AcDbLine
 10
1370.375554507203
 20
688.7990514599354
 30
0.0
 11
1370.375554507203
 21
690.6784367015073
 31
0.0
  0
ARC
  5
12A
330
1F
100
AcDbEntity
  8
0
  6
Continuous
 62
     7
370
    15
100
AcDbCircle
 10
663.5755545072029
 20
671.2913772391535
 30
0.0
 40
17.50767422078195
100
AcDbArc
 50
90.0
 51
180.0
  0
LINE
  5
12B
330
1F
100
AcDbEntity
  8
0
  6
Continuous
 62
     7
370
    15
100
AcDbLine
 10
644.1884950448492
 20
671.2913772391535
 30
0.0
 11
646.0678802864211
 21
671.2913772391535
 31
0.0
  0
LINE
  5
12C
330
1F
100
AcDbEntity
  8
0
  6
Continuous
 62
     7
370
    15
100
AcDbLine
 10
646.0678802864211
 20
671.2913772391535
 30
0.0
 11
646.0678802864212
 21
314.8913772391534
 31
0.0
  0
LINE
  5
12D
330
1F
100
AcDbEntity
  8
0
  6
Continuous
 62
     7
370
    15
100
AcDbLine
 10
644.1884950448492
 20
314.8913772391534
 30
0.0
 11
646.0678802864212
 21
314.8913772391534
 31
0.0
  0
LINE
  5
12E
330
1F
100
AcDbEntity
  8
0
  6
Continuous
 62
     7
370
    15
100
AcDbLine
 10
1387.883228727985
 20
314.8913772391533
 30
0.0
 11
1387.883228727985
 21
671.2913772391535
 31
0.0
  0
LINE
  5
12F
330
1F
100
AcDbEntity
  8
0
  6
Continuous
 62
     7
370
    15
100
AcDbLine
 10
1387.883228727985
 20
671.2913772391535
 30
0.0
 11
1389.762613969557
 21
671.2913772391535
 31
0.0
  0
LINE
  5
130
330
1F
100
AcDbEntity
  8
0
  6
Continuous
 62
     7
370
    15
100
AcDbLine
 10
1387.883228727985
 20
314.8913772391533
 30
0.0
 11
1389.762613969557
 21
314.8913772391533
 31
0.0
  0
ARC
  5
131
330
1F
100
AcDbEntity
  8
0
  6
Continuous
 62
     7
370
    15
100
AcDbCircle
 10
1370.375554507203
 20
314.8913772391533
 30
0.0
 40
17.50767422078206
100
AcDbArc
 50
270.0000000000008
 51
0.0
  0
LINE
  5
132
330
1F
100
AcDbEntity
  8
0
  6
Continuous
 62
     7
370
    15
100
AcDbLine
 10
1370.375554507203
 20
297.3837030183714
 30
0.0
 11
1370.375554507203
 21
295.5043177767996
 31
0.0
  0
ARC
  5
133
330
1F
100
AcDbEntity
  8
0
  6
Continuous
 62
     7
370
    15
100
AcDbCircle
 10
663.5755545072032
 20
314.8913772391533
 30
0.0
 40
17.50767422078201
100
AcDbArc
 50
179.9999999999998
 51
270.0000000000008
  0
LINE
  5
134
330
1F
100
AcDbEntity
  8
0
  6
Continuous
 62
     7
370
    15
100
AcDbLine
 10
663.5755545072032
 20
295.5043177767995
 30
0.0
 11
663.5755545072032
 21
297.3837030183713
 31
0.0
  0
LINE
  5
135
330
1F
100
AcDbEntity
  8
0
  6
Continuous
 62
     7
370
    15
100
AcDbLine
 10
663.5755545072032
 20
297.3837030183713
 30
0.0
 11
1370.375554507203
 21
297.3837030183714
 31
0.0
  0
ARC
  5
136
330
1F
100
AcDbEntity
  8
0
  6
Continuous
 62
     7
370
    15
100
AcDbCircle
 10
1370.375554507203
 20
671.2913772391535
 30
0.0
 40
17.50767422078206
100
AcDbArc
 50
0.0
 51
90.0
  0
LINE
  5
137
330
1F
100
AcDbEntity
  8
0
  6
Continuous
 62
     7
370
    15
100
AcDbLine
 10
894.4755545072032
 20
668.8913772391536
 30
0.0
 11
1344.475554507203
 21
668.8913772391536
 31
0.0
  0
ARC
  5
138
330
1F
100
AcDbEntity
  8
0
  6
Continuous
 62
     7
370
    15
100
AcDbCircle
 10
894.4755545072032
 20
637.8913772391535
 30
0.0
 40
31.00000000000011
100
AcDbArc
 50
90.0
 51
180.0
  0
LINE
  5
139
330
1F
100
AcDbEntity
  8
0
  6
Continuous
 62
     7
370
    15
100
AcDbLine
 10
863.4755545072031
 20
348.2913772391533
 30
0.0
 11
863.4755545072031
 21
637.8913772391535
 31
0.0
  0
ARC
  5
13A
330
1F
100
AcDbEntity
  8
0
  6
Continuous
 62
     7
370
    15
100
AcDbCircle
 10
894.4755545072032
 20
348.2913772391533
 30
0.0
 40
31.00000000000011
100
AcDbArc
 50
180.0
 51
270.0000000000008
  0
LINE
  5
13B
330
1F
100
AcDbEntity
  8
0
  6
Continuous
 62
     7
370
    15
100
AcDbLine
 10
1344.475554507203
 20
317.2913772391531
 30
0.0
 11
894.4755545072032
 21
317.2913772391532
 31
0.0
  0
ARC
  5
13C
330
1F
100
AcDbEntity
  8
0
  6
Continuous
 62
     7
370
    15
100
AcDbCircle
 10
1344.475554507203
 20
348.2913772391533
 30
0.0
 40
31.00000000000023
100
AcDbArc
 50
270.0000000000008
 51
0.0
  0
LINE
  5
13D
330
1F
100
AcDbEntity
  8
0
  6
Continuous
 62
     7
370
    15
100
AcDbLine
 10
1375.475554507203
 20
637.8913772391535
 30
0.0
 11
1375.475554507203
 21
348.2913772391533
 31
0.0
  0
ARC
  5
13E
330
1F
100
AcDbEntity
  8
0
  6
Continuous
 62
     7
370
    15
100
AcDbCircle
 10
1344.475554507203
 20
637.8913772391535
 30
0.0
 40
31.00000000000011
100
AcDbArc
 50
0.0
 51
90.0
  0
LINE
  5
13F
330
1F
100
AcDbEntity
  8
0
  6
Continuous
 62
     7
370
    15
100
AcDbLine
 10
809.4755545072034
 20
317.2913772391533
 30
0.0
 11
689.4755545072034
 21
317.2913772391532
 31
0.0
  0
ARC
  5
140
330
1F
100
AcDbEntity
  8
0
  6
Continuous
 62
     7
370
    15
100
AcDbCircle
 10
809.4755545072034
 20
348.2913772391533
 30
0.0
 40
31.00000000000023
100
AcDbArc
 50
270.0000000000008
 51
0.0
  0
LINE
  5
141
330
1F
100
AcDbEntity
  8
0
  6
Continuous
 62
     7
370
    15
100
AcDbLine
 10
840.4755545072035
 20
637.8913772391535
 30
0.0
 11
840.4755545072036
 21
348.2913772391533
 31
0.0
  0
ARC
  5
142
330
1F
100
AcDbEntity
  8
0
  6
Continuous
 62
     7
370
    15
100
AcDbCircle
 10
809.4755545072034
 20
637.8913772391535
 30
0.0
 40
31.00000000000011
100
AcDbArc
 50
0.0
 51
90.0
  0
LINE
  5
143
330
1F
100
AcDbEntity
  8
0
  6
Continuous
 62
     7
370
    15
100
AcDbLine
 10
689.4755545072032
 20
668.8913772391536
 30
0.0
 11
809.4755545072034
 21
668.8913772391535
 31
0.0
  0
ARC
  5
144
330
1F
100
AcDbEntity
  8
0
  6
Continuous
 62
     7
370
    15
100
AcDbCircle
 10
689.4755545072032
 20
637.8913772391535
 30
0.0
 40
31.00000000000011
100
AcDbArc
 50
90.0
 51
180.0
  0
LINE
  5
145
330
1F
100
AcDbEntity
  8
0
  6
Continuous
 62
     7
370
    15
100
AcDbLine
 10
658.4755545072032
 20
348.2913772391533
 30
0.0
 11
658.4755545072031
 21
637.8913772391535
 31
0.0
  0
ARC
  5
146
330
1F
100
AcDbEntity
  8
0
  6
Continuous
 62
     7
370
    15
100
AcDbCircle
 10
689.4755545072034
 20
348.2913772391533
 30
0.0
 40
31.00000000000011
100
AcDbArc
 50
180.0
 51
270.0000000000008
  0
LINE
  5
147
330
1F
100
AcDbEntity
  8
0
  6
Continuous
 62
     7
370
    15
100
AcDbLine
 10
809.4755545072034
 20
317.2913772391533
 30
0.0
 11
809.4755545072034
 21
322.2913772391534
 31
0.0
  0
ARC
  5
148
330
1F
100
AcDbEntity
  8
0
  6
Continuous
 62
     7
370
    15
100
AcDbCircle
 10
809.4755545072034
 20
348.2913772391533
 30
0.0
 40
26.0
100
AcDbArc
 50
270.0000000000008
 51
0.0
  0
LINE
  5
149
330
1F
100
AcDbEntity
  8
0
  6
Continuous
 62
     7
370
    15
100
AcDbLine
 10
840.4755545072036
 20
348.2913772391533
 30
0.0
 11
835.4755545072034
 21
348.2913772391533
 31
0.0
  0
ARC
  5
14A
330
1F
100
AcDbEntity
  8
0
  6
Continuous
 62
     7
370
    15
100
AcDbCircle
 10
809.4755545072034
 20
637.8913772391535
 30
0.0
 40
25.99999999999989
100
AcDbArc
 50
0.0
 51
90.0
  0
LINE
  5
14B
330
1F
100
AcDbEntity
  8
0
  6
Continuous
 62
     7
370
    15
100
AcDbLine
 10
809.4755545072034
 20
663.8913772391534
 30
0.0
 11
809.4755545072034
 21
668.8913772391535
 31
0.0
  0
LINE
  5
14C
330
1F
100
AcDbEntity
  8
0
  6
Continuous
 62
     7
370
    15
100
AcDbLine
 10
835.4755545072032
 20
637.8913772391535
 30
0.0
 11
840.4755545072035
 21
637.8913772391535
 31
0.0
  0
LINE
  5
14D
330
1F
100
AcDbEntity
  8
0
  6
Continuous
 62
     7
370
    15
100
AcDbLine
 10
868.4755545072032
 20
637.8913772391535
 30
0.0
 11
868.4755545072032
 21
348.2913772391533
 31
0.0
  0
LINE
  5
14E
330
1F
100
AcDbEntity
  8
0
  6
Continuous
 62
     7
370
    15
100
AcDbLine
 10
868.4755545072032
 20
348.2913772391533
 30
0.0
 11
863.4755545072031
 21
348.2913772391533
 31
0.0
  0
LINE
  5
14F
330
1F
100
AcDbEntity
  8
0
  6
Continuous
 62
     7
370
    15
100
AcDbLine
 10
863.4755545072031
 20
637.8913772391535
 30
0.0
 11
868.4755545072032
 21
637.8913772391535
 31
0.0
  0
LINE
  5
150
330
1F
100
AcDbEntity
  8
0
  6
Continuous
 62
     7
370
    15
100
AcDbLine
 10
835.4755545072034
 20
348.2913772391533
 30
0.0
 11
835.4755545072032
 21
637.8913772391535
 31
0.0
  0
LINE
  5
151
330
1F
100
AcDbEntity
  8
0
  6
Continuous
 62
     7
370
    15
100
AcDbLine
 10
1370.475554507203
 20
348.2913772391533
 30
0.0
 11
1370.475554507203
 21
637.8913772391535
 31
0.0
  0
LINE
  5
152
330
1F
100
AcDbEntity
  8
0
  6
Continuous
 62
     7
370
    15
100
AcDbLine
 10
1375.475554507203
 20
637.8913772391535
 30
0.0
 11
1370.475554507203
 21
637.8913772391535
 31
0.0
  0
LINE
  5
153
330
1F
100
AcDbEntity
  8
0
  6
Continuous
 62
     7
370
    15
100
AcDbLine
 10
1370.475554507203
 20
348.2913772391533
 30
0.0
 11
1375.475554507203
 21
348.2913772391533
 31
0.0
  0
ARC
  5
154
330
1F
100
AcDbEntity
  8
0
  6
Continuous
 62
     7
370
    15
100
AcDbCircle
 10
1344.475554507203
 20
637.8913772391535
 30
0.0
 40
26.0
100
AcDbArc
 50
0.0
 51
90.0
  0
LINE
  5
155
330
1F
100
AcDbEntity
  8
0
  6
Continuous
 62
     7
370
    15
100
AcDbLine
 10
1344.475554507203
 20
668.8913772391536
 30
0.0
 11
1344.475554507203
 21
663.8913772391534
 31
0.0
  0
LINE
  5
156
330
1F
100
AcDbEntity
  8
0
  6
Continuous
 62
     7
370
    15
100
AcDbLine
 10
809.4755545072034
 20
663.8913772391534
 30
0.0
 11
689.4755545072032
 21
663.8913772391535
 31
0.0
  0
LINE
  5
157
330
1F
100
AcDbEntity
  8
0
  6
Continuous
 62
     7
370
    15
100
AcDbLine
 10
689.4755545072032
 20
663.8913772391535
 30
0.0
 11
689.4755545072032
 21
668.8913772391536
 31
0.0
  0
LINE
  5
158
330
1F
100
AcDbEntity
  8
0
  6
Continuous
 62
     7
370
    15
100
AcDbLine
 10
689.4755545072034
 20
317.2913772391532
 30
0.0
 11
689.4755545072034
 21
322.2913772391533
 31
0.0
  0
LINE
  5
159
330
1F
100
AcDbEntity
  8
0
  6
Continuous
 62
     7
370
    15
100
AcDbLine
 10
689.4755545072034
 20
322.2913772391533
 30
0.0
 11
809.4755545072034
 21
322.2913772391534
 31
0.0
  0
ARC
  5
15A
330
1F
100
AcDbEntity
  8
0
  6
Continuous
 62
     7
370
    15
100
AcDbCircle
 10
689.4755545072032
 20
637.8913772391535
 30
0.0
 40
26.0
100
AcDbArc
 50
90.0
 51
180.0
  0
LINE
  5
15B
330
1F
100
AcDbEntity
  8
0
  6
Continuous
 62
     7
370
    15
100
AcDbLine
 10
663.4755545072032
 20
637.8913772391535
 30
0.0
 11
658.4755545072031
 21
637.8913772391535
 31
0.0
  0
LINE
  5
15C
330
1F
100
AcDbEntity
  8
0
  6
Continuous
 62
     7
370
    15
100
AcDbLine
 10
658.4755545072032
 20
348.2913772391533
 30
0.0
 11
663.4755545072032
 21
348.2913772391533
 31
0.0
  0
ARC
  5
15D
330
1F
100
AcDbEntity
  8
0
  6
Continuous
 62
     7
370
    15
100
AcDbCircle
 10
689.4755545072034
 20
348.2913772391533
 30
0.0
 40
26.00000000000011
100
AcDbArc
 50
180.0
 51
270.0000000000008
  0
LINE
  5
15E
330
1F
100
AcDbEntity
  8
0
  6
Continuous
 62
     7
370
    15
100
AcDbLine
 10
663.4755545072032
 20
637.8913772391535
 30
0.0
 11
663.4755545072032
 21
348.2913772391533
 31
0.0
  0
LINE
  5
15F
330
1F
100
AcDbEntity
  8
0
  6
Continuous
 62
     7
370
    15
100
AcDbLine
 10
894.4755545072032
 20
322.2913772391533
 30
0.0
 11
1344.475554507203
 21
322.2913772391533
 31
0.0
  0
LINE
  5
160
330
1F
100
AcDbEntity
  8
0
  6
Continuous
 62
     7
370
    15
100
AcDbLine
 10
1344.475554507203
 20
322.2913772391533
 30
0.0
 11
1344.475554507203
 21
317.2913772391531
 31
0.0
  0
LINE
  5
161
330
1F
100
AcDbEntity
  8
0
  6
Continuous
 62
     7
370
    15
100
AcDbLine
 10
894.4755545072032
 20
322.2913772391533
 30
0.0
 11
894.4755545072032
 21
317.2913772391532
 31
0.0
  0
ARC
  5
162
330
1F
100
AcDbEntity
  8
0
  6
Continuous
 62
     7
370
    15
100
AcDbCircle
 10
894.4755545072032
 20
348.2913772391533
 30
0.0
 40
26.0
100
AcDbArc
 50
180.0
 51
270.0000000000008
  0
LINE
  5
163
330
1F
100
AcDbEntity
  8
0
  6
Continuous
 62
     7
370
    15
100
AcDbLine
 10
894.4755545072032
 20
668.8913772391536
 30
0.0
 11
894.4755545072032
 21
663.8913772391534
 31
0.0
  0
ARC
  5
164
330
1F
100
AcDbEntity
  8
0
  6
Continuous
 62
     7
370
    15
100
AcDbCircle
 10
894.4755545072032
 20
637.8913772391535
 30
0.0
 40
26.0
100
AcDbArc
 50
90.0
 51
180.0
  0
LINE
  5
165
330
1F
100
AcDbEntity
  8
0
  6
Continuous
 62
     7
370
    15
100
AcDbLine
 10
1344.475554507203
 20
663.8913772391534
 30
0.0
 11
894.4755545072032
 21
663.8913772391534
 31
0.0
  0
ARC
  5
166
330
1F
100
AcDbEntity
  8
0
  6
Continuous
 62
     7
370
    15
100
AcDbCircle
 10
1344.475554507203
 20
348.2913772391533
 30
0.0
 40
26.0
100
AcDbArc
 50
270.0000000000008
 51
0.0
  0
LINE
  5
167
330
1F
100
AcDbEntity
  8
0
  6
Continuous
 62
     8
370
    15
100
AcDbLine
 10
1370.474785265054
 20
638.0913772391534
 30
0.0
 11
1369.475554507203
 21
638.0913772391534
 31
0.0
  0
LINE
  5
168
330
1F
100
AcDbEntity
  8
0
  6
Continuous
 62
     8
370
    15
100
AcDbLine
 10
1344.475554507203
 20
663.8913772391534
 30
0.0
 11
1344.475554507203
 21
663.0913772391533
 31
0.0
  0
LINE
  5
169
330
1F
100
AcDbEntity
  8
0
  6
Continuous
 62
     8
370
    15
100
AcDbLine
 10
1344.475554507203
 20
323.0913772391534
 30
0.0
 11
1344.475554507203
 21
322.2913772391534
 31
0.0
  0
LINE
  5
16A
330
1F
100
AcDbEntity
  8
0
  6
Continuous
 62
     8
370
    15
100
AcDbLine
 10
894.4755545072031
 20
323.0913772391533
 30
0.0
 11
894.4755545072031
 21
322.2913772391533
 31
0.0
  0
LINE
  5
16B
330
1F
100
AcDbEntity
  8
0
  6
Continuous
 62
     8
370
    15
100
AcDbLine
 10
1370.474785265054
 20
348.0913772391534
 30
0.0
 11
1369.475554507203
 21
348.0913772391534
 31
0.0
  0
LINE
  5
16C
330
1F
100
AcDbEntity
  8
0
  6
Continuous
 62
     8
370
    15
100
AcDbLine
 10
869.4755545072031
 20
348.0913772391533
 30
0.0
 11
868.476323749352
 21
348.0913772391533
 31
0.0
  0
LINE
  5
16D
330
1F
100
AcDbEntity
  8
0
  6
Continuous
 62
     8
370
    15
100
AcDbLine
 10
869.4755545072032
 20
638.0913772391533
 30
0.0
 11
868.476323749352
 21
638.0913772391533
 31
0.0
  0
LINE
  5
16E
330
1F
100
AcDbEntity
  8
0
  6
Continuous
 62
     8
370
    15
100
AcDbLine
 10
894.4755545072031
 20
663.8913772391534
 30
0.0
 11
894.4755545072031
 21
663.0913772391532
 31
0.0
  0
LINE
  5
16F
330
1F
100
AcDbEntity
  8
0
  6
Continuous
 62
     8
370
    15
100
AcDbLine
 10
1096.225554507203
 20
662.2809667609388
 30
0.0
 11
1096.225554507203
 21
663.0013721760837
 31
0.0
  0
LINE
  5
170
330
1F
100
AcDbEntity
  8
0
  6
Continuous
 62
     8
370
    15
100
AcDbLine
 10
1142.725554507203
 20
662.2809667609388
 30
0.0
 11
1142.725554507203
 21
663.0013721760837
 31
0.0
  0
LINE
  5
171
330
1F
100
AcDbEntity
  8
0
  6
Continuous
 62
     8
370
    15
100
AcDbLine
 10
664.4755545072034
 20
348.0913772391534
 30
0.0
 11
663.4763237493521
 21
348.0913772391534
 31
0.0
  0
LINE
  5
172
330
1F
100
AcDbEntity
  8
0
  6
Continuous
 62
     8
370
    15
100
AcDbLine
 10
664.4755545072034
 20
638.0913772391532
 30
0.0
 11
663.476323749352
 21
638.0913772391532
 31
0.0
  0
LINE
  5
173
330
1F
100
AcDbEntity
  8
0
  6
Continuous
 62
     8
370
    15
100
AcDbLine
 10
809.4755545072032
 20
663.8913772391535
 30
0.0
 11
809.4755545072032
 21
663.0913772391533
 31
0.0
  0
LINE
  5
174
330
1F
100
AcDbEntity
  8
0
  6
Continuous
 62
     8
370
    15
100
AcDbLine
 10
689.4755545072032
 20
663.8913772391534
 30
0.0
 11
689.4755545072032
 21
663.0913772391533
 31
0.0
  0
LINE
  5
175
330
1F
100
AcDbEntity
  8
0
  6
Continuous
 62
     8
370
    15
100
AcDbLine
 10
689.4755545072032
 20
323.0913772391533
 30
0.0
 11
689.4755545072032
 21
322.2913772391533
 31
0.0
  0
LINE
  5
176
330
1F
100
AcDbEntity
  8
0
  6
Continuous
 62
     8
370
    15
100
AcDbLine
 10
809.4755545072032
 20
323.0913772391533
 30
0.0
 11
809.4755545072032
 21
322.2913772391533
 31
0.0
  0
ENDSEC
  0
SECTION
  2
OBJECTS
  0
DICTIONARY
  5
C
330
0
100
AcDbDictionary
281
     1
  3
ACAD_GROUP
350
D
  3
ACAD_IMAGE_VARS
350
1BA
  3
ACAD_LAYOUT
350
1A
  3
ACAD_MLINESTYLE
350
17
  3
ACAD_PLOTSETTINGS
350
19
  3
ACAD_PLOTSTYLENAME
350
E
  3
ACAD_SCALELIST
350
190
  3
APPDATA
350
1B8
  3
DWGPROPS
350
1BB
  0
DICTIONARY
  5
D
102
{ACAD_REACTORS
330
C
102
}
330
C
100
AcDbDictionary
281
     1
  0
RASTERVARIABLES
  5
1BA
102
{ACAD_REACTORS
330
C
102
}
330
C
100
AcDbRasterVariables
 90
        0
 70
     1
 71
     1
 72
     1
  0
DICTIONARY
  5
1A
102
{ACAD_REACTORS
330
C
102
}
330
C
100
AcDbDictionary
281
     1
  3
Layout1
350
1E
  3
Layout2
350
26
  3
Model
350
22
  0
DICTIONARY
  5
17
102
{ACAD_REACTORS
330
C
102
}
330
C
100
AcDbDictionary
281
     1
  3
Standard
350
18
  0
DICTIONARY
  5
19
102
{ACAD_REACTORS
330
C
102
}
330
C
100
AcDbDictionary
281
     1
  0
ACDBDICTIONARYWDFLT
  5
E
102
{ACAD_REACTORS
330
C
102
}
330
C
100
AcDbDictionary
281
     1
  3
Normal
350
F
100
AcDbDictionaryWithDefault
340
F
  0
DICTIONARY
  5
190
102
{ACAD_REACTORS
330
C
102
}
330
C
100
AcDbDictionary
281
     1
  3
A0
350
191
  3
A1
350
192
  3
A2
350
193
  3
A3
350
194
  3
A4
350
195
  3
A5
350
196
  3
A6
350
197
  3
A7
350
198
  3
A8
350
199
  3
A9
350
19A
  3
B0
350
19B
  3
B1
350
19C
  3
B2
350
19D
  3
B3
350
19E
  3
B4
350
19F
  3
B5
350
1A0
  3
B6
350
1A1
  3
B7
350
1A2
  3
B8
350
1A3
  3
B9
350
1A4
  3
C0
350
1A5
  3
C1
350
1A6
  3
C2
350
1A7
  3
C3
350
1A8
  3
C4
350
1A9
  3
C5
350
1AA
  3
C6
350
1AB
  3
C7
350
1AC
  3
C8
350
1AD
  3
C9
350
1AE
  3
D0
350
1AF
  3
D1
350
1B0
  3
D2
350
1B1
  0
DICTIONARY
  5
1B8
102
{ACAD_REACTORS
330
C
102
}
330
C
100
AcDbDictionary
281
     1
  0
XRECORD
  5
1BB
102
{ACAD_REACTORS
330
C
102
}
330
C
100
AcDbXrecord
280
     1
  1
DWGPROPS COOKIE
  2

  3

  4

  6

  7

  8
Ismo
  9

300
=
301
=
302
=
303
=
304
=
305
=
306
=
307
=
308
=
309
=
 40
0.0
 41
2456338.508429444
 42
2457758.276147477
  1

 90
        0
  0
LAYOUT
  5
1E
102
{ACAD_REACTORS
330
1A
102
}
330
1A
100
AcDbPlotSettings
  1

  2
none_device
  4

  6

 40
0.0
 41
0.0
 42
0.0
 43
0.0
 44
0.0
 45
0.0
 46
0.0
 47
0.0
 48
0.0
 49
0.0
140
0.0
141
0.0
142
1.0
143
1.0
 70
   688
 72
     0
 73
     0
 74
     5
  7

 75
    16
147
1.0
148
0.0
149
0.0
100
AcDbLayout
  1
Layout1
 70
     1
 71
     1
 10
0.0
 20
0.0
 11
420.0
 21
297.0
 12
0.0
 22
0.0
 32
0.0
 14
1.000000000000000E+20
 24
1.000000000000000E+20
 34
1.000000000000000E+20
 15
-1.000000000000000E+20
 25
-1.000000000000000E+20
 35
-1.000000000000000E+20
146
0.0
 13
0.0
 23
0.0
 33
0.0
 16
1.0
 26
0.0
 36
0.0
 17
0.0
 27
1.0
 37
0.0
 76
     0
330
1B
  0
LAYOUT
  5
26
102
{ACAD_REACTORS
330
1A
102
}
330
1A
100
AcDbPlotSettings
  1

  2
none_device
  4

  6

 40
0.0
 41
0.0
 42
0.0
 43
0.0
 44
0.0
 45
0.0
 46
0.0
 47
0.0
 48
0.0
 49
0.0
140
0.0
141
0.0
142
1.0
143
1.0
 70
   688
 72
     0
 73
     0
 74
     5
  7

 75
    16
147
1.0
148
0.0
149
0.0
100
AcDbLayout
  1
Layout2
 70
     1
 71
     2
 10
0.0
 20
0.0
 11
0.0
 21
0.0
 12
0.0
 22
0.0
 32
0.0
 14
0.0
 24
0.0
 34
0.0
 15
0.0
 25
0.0
 35
0.0
146
0.0
 13
0.0
 23
0.0
 33
0.0
 16
1.0
 26
0.0
 36
0.0
 17
0.0
 27
1.0
 37
0.0
 76
     0
330
23
  0
LAYOUT
  5
22
102
{ACAD_REACTORS
330
1A
102
}
330
1A
100
AcDbPlotSettings
  1

  2
none_device
  4

  6

 40
0.0
 41
0.0
 42
0.0
 43
0.0
 44
0.0
 45
0.0
 46
0.0
 47
0.0
 48
0.0
 49
0.0
140
0.0
141
0.0
142
1.0
143
1.0
 70
  1712
 72
     0
 73
     0
 74
     0
  7

 75
     0
147
1.0
148
0.0
149
0.0
100
AcDbLayout
  1
Model
 70
     1
 71
     0
 10
0.0
 20
0.0
 11
2000.0
 21
1000.0
 12
0.0
 22
0.0
 32
0.0
 14
0.0
 24
0.0
 34
0.0
 15
2000.0
 25
1000.0
 35
0.0
146
0.0
 13
0.0
 23
0.0
 33
0.0
 16
1.0
 26
0.0
 36
0.0
 17
0.0
 27
1.0
 37
0.0
 76
     0
330
1F
331
29
  0
MLINESTYLE
  5
18
102
{ACAD_REACTORS
330
17
102
}
330
17
100
AcDbMlineStyle
  2
Standard
 70
     0
  3

 62
   256
 51
90.0
 52
90.0
 71
     2
 49
0.5
 62
   256
  6
BYLAYER
 49
-0.5
 62
   256
  6
BYLAYER
  0
ACDBPLACEHOLDER
  5
F
102
{ACAD_REACTORS
330
E
102
}
330
E
  0
SCALE
  5
191
102
{ACAD_REACTORS
330
190
102
}
330
190
100
AcDbScale
 70
     0
300
1:1
140
1.0
141
1.0
290
     1
  0
SCALE
  5
192
102
{ACAD_REACTORS
330
190
102
}
330
190
100
AcDbScale
 70
     0
300
1:2
140
1.0
141
2.0
290
     0
  0
SCALE
  5
193
102
{ACAD_REACTORS
330
190
102
}
330
190
100
AcDbScale
 70
     0
300
1:4
140
1.0
141
4.0
290
     0
  0
SCALE
  5
194
102
{ACAD_REACTORS
330
190
102
}
330
190
100
AcDbScale
 70
     0
300
1:5
140
1.0
141
5.0
290
     0
  0
SCALE
  5
195
102
{ACAD_REACTORS
330
190
102
}
330
190
100
AcDbScale
 70
     0
300
1:8
140
1.0
141
8.0
290
     0
  0
SCALE
  5
196
102
{ACAD_REACTORS
330
190
102
}
330
190
100
AcDbScale
 70
     0
300
1:10
140
1.0
141
10.0
290
     0
  0
SCALE
  5
197
102
{ACAD_REACTORS
330
190
102
}
330
190
100
AcDbScale
 70
     0
300
1:16
140
1.0
141
16.0
290
     0
  0
SCALE
  5
198
102
{ACAD_REACTORS
330
190
102
}
330
190
100
AcDbScale
 70
     0
300
1:20
140
1.0
141
20.0
290
     0
  0
SCALE
  5
199
102
{ACAD_REACTORS
330
190
102
}
330
190
100
AcDbScale
 70
     0
300
1:30
140
1.0
141
30.0
290
     0
  0
SCALE
  5
19A
102
{ACAD_REACTORS
330
190
102
}
330
190
100
AcDbScale
 70
     0
300
1:40
140
1.0
141
40.0
290
     0
  0
SCALE
  5
19B
102
{ACAD_REACTORS
330
190
102
}
330
190
100
AcDbScale
 70
     0
300
1:50
140
1.0
141
50.0
290
     0
  0
SCALE
  5
19C
102
{ACAD_REACTORS
330
190
102
}
330
190
100
AcDbScale
 70
     0
300
1:100
140
1.0
141
100.0
290
     0
  0
SCALE
  5
19D
102
{ACAD_REACTORS
330
190
102
}
330
190
100
AcDbScale
 70
     0
300
2:1
140
2.0
141
1.0
290
     0
  0
SCALE
  5
19E
102
{ACAD_REACTORS
330
190
102
}
330
190
100
AcDbScale
 70
     0
300
4:1
140
4.0
141
1.0
290
     0
  0
SCALE
  5
19F
102
{ACAD_REACTORS
330
190
102
}
330
190
100
AcDbScale
 70
     0
300
8:1
140
8.0
141
1.0
290
     0
  0
SCALE
  5
1A0
102
{ACAD_REACTORS
330
190
102
}
330
190
100
AcDbScale
 70
     0
300
10:1
140
10.0
141
1.0
290
     0
  0
SCALE
  5
1A1
102
{ACAD_REACTORS
330
190
102
}
330
190
100
AcDbScale
 70
     0
300
100:1
140
100.0
141
1.0
290
     0
  0
SCALE
  5
1A2
102
{ACAD_REACTORS
330
190
102
}
330
190
100
AcDbScale
 70
     0
300
1/128" = 1'-0"
140
0.0078125
141
12.0
290
     0
  0
SCALE
  5
1A3
102
{ACAD_REACTORS
330
190
102
}
330
190
100
AcDbScale
 70
     0
300
1/64" = 1'-0"
140
0.015625
141
12.0
290
     0
  0
SCALE
  5
1A4
102
{ACAD_REACTORS
330
190
102
}
330
190
100
AcDbScale
 70
     0
300
1/32" = 1'-0"
140
0.03125
141
12.0
290
     0
  0
SCALE
  5
1A5
102
{ACAD_REACTORS
330
190
102
}
330
190
100
AcDbScale
 70
     0
300
1/16" = 1'-0"
140
0.0625
141
12.0
290
     0
  0
SCALE
  5
1A6
102
{ACAD_REACTORS
330
190
102
}
330
190
100
AcDbScale
 70
     0
300
3/32" = 1'-0"
140
0.09375
141
12.0
290
     0
  0
SCALE
  5
1A7
102
{ACAD_REACTORS
330
190
102
}
330
190
100
AcDbScale
 70
     0
300
1/8" = 1'-0"
140
0.125
141
12.0
290
     0
  0
SCALE
  5
1A8
102
{ACAD_REACTORS
330
190
102
}
330
190
100
AcDbScale
 70
     0
300
3/16" = 1'-0"
140
0.1875
141
12.0
290
     0
  0
SCALE
  5
1A9
102
{ACAD_REACTORS
330
190
102
}
330
190
100
AcDbScale
 70
     0
300
1/4" = 1'-0"
140
0.25
141
12.0
290
     0
  0
SCALE
  5
1AA
102
{ACAD_REACTORS
330
190
102
}
330
190
100
AcDbScale
 70
     0
300
3/8" = 1'-0"
140
0.375
141
12.0
290
     0
  0
SCALE
  5
1AB
102
{ACAD_REACTORS
330
190
102
}
330
190
100
AcDbScale
 70
     0
300
1/2" = 1'-0"
140
0.5
141
12.0
290
     0
  0
SCALE
  5
1AC
102
{ACAD_REACTORS
330
190
102
}
330
190
100
AcDbScale
 70
     0
300
3/4" = 1'-0"
140
0.75
141
12.0
290
     0
  0
SCALE
  5
1AD
102
{ACAD_REACTORS
330
190
102
}
330
190
100
AcDbScale
 70
     0
300
1" = 1'-0"
140
1.0
141
12.0
290
     0
  0
SCALE
  5
1AE
102
{ACAD_REACTORS
330
190
102
}
330
190
100
AcDbScale
 70
     0
300
1-1/2" = 1'-0"
140
1.5
141
12.0
290
     0
  0
SCALE
  5
1AF
102
{ACAD_REACTORS
330
190
102
}
330
190
100
AcDbScale
 70
     0
300
3" = 1'-0"
140
3.0
141
12.0
290
     0
  0
SCALE
  5
1B0
102
{ACAD_REACTORS
330
190
102
}
330
190
100
AcDbScale
 70
     0
300
6" = 1'-0"
140
6.0
141
12.0
290
     0
  0
SCALE
  5
1B1
102
{ACAD_REACTORS
330
190
102
}
330
190
100
AcDbScale
 70
     0
300
1'-0" = 1'-0"
140
12.0
141
12.0
290
     0
  0
ENDSEC
  0
EOF
